>
 >
Sanitarium 2

Sanitarium 2 Guitar Tabs

Metallica - Sanitarium 2 chords, tabs, tablatures, lyrics

Guitar lessons | Add/correct | Request | Top 50 tabs Artists:  A B C D E F G H I J K L M N O P Q R S T U V W X Y Z 0-9

Sanitarium 2 Guitar Tabs – Metallica

CD, Sheet music, Poster

Do you like Sanitarium 2? Share with your friends now
TabsTabs v2Tabs v3
metallica
sanitarium


intro
|-------12---------3---353-2-----|--------12----------2---2-----3-|
|-----------12-------------------|------------12----------0-------|
|--------------------------------|--------------------------------|
|--------------------------------|--------------------------------|
|--------------------------------|--------------------------------|
|0-------------------------------|0-------------------------------|

|--------12----------------------|--------12----------------------|
|------------12------------------|------------12------------------|
|--------------------------------|--------------------------------|
|--------------------------------|--------------------------------|
|--------------------------------|--------------------------------|
|0-------------------------------|0-------------------------------|

|--------12----------------------|--------12----------------------|
|------------12------------------|------------12------------------|
|--------------------------------|----------------12--------------|
|--------------------------------|--------------------------------|
|--------------------------------|--------------------------------|
|0-------------------------------|0-------------------------------|

|-------12---------3---353-2-----|--------12----------2---2-----3-|
|-----------12-------------------|------------12----------0-------|
|--------------------------------|--------------------------------|
|--------------------------------|--------------------------------|
|--------------------------------|--------------------------------|
|0-------------------------------|0-------------------------------|

|--------12----------------------|--------12----------------------|
|------------12------------------|------------12------------------|
|--------------------------------|--------------------------------|
|--------------------------------|--------------------------------|
|--------------------------------|--------------------------------|
|0-------------------------------|0-------------------------------|

|--------12----------------------|--------12----------------------|
|------------12------------------|------------12------------------|
|--------------------------------|----------------12--------------|
|--------------------------------|--------------------------------|
|--------------------------------|--------------------------------|
|0-------------------------------|0-------------------------------|
Verse

|-------------------------------------------|   
|-------------------------------------------|    
|------0-------0-------0--------------------|   
|----4-------5-------7-------0-------0-----0|   
|--2-------3-------5-------4-------2--------|   
|0-------0-------0-------5-----5/3----3/5---|
Solo 1

|----------------------------------------10-12--15-17--17---------------------|
|--------------------------------10-12----------------------------------------|
|----------11---12---9-------12-----------------------------------------------|
|-----9-----------------------------------------------------------------------|
|7----------------------------------------------------------------------------|
|-----------------------------------------------------------------------------|

|--15--15--12--12/14---12---------12------------------------------------------|
|------------------------------15-----15--13----121312------------------------|
|---------------------------------------------------------14--12--11----------|
|--------------------------------------------------------------------12-------|
|-------------------------------------------------------------------------14--|
|-----------------------------------------------------------------------------|

|------------------19---19-------------17--17-15-14---------------------------|
|--------------17-----------17----------------------17-15-14------------------|
|12/14------16-----------------16/14----------------------------16-14---------|
|-----------------------------------------------------------------------------|
|-----------------------------------------------------------------------------|
|-----------------------------------------------------------------------------|
                               
|--------------------------------12-12-10-8-----------------------------------|
|-----------------------------13----------------------------------------------|
|-----12---------10--------14-------------------------------------------------|
|----------------------14----------------------------0----------0------0------|
|------------------------------------------------4----------2-----------------|
|----------------------------------------------5--------5/3-------3/5---------|
Chorus

|-----------------------------------------------------------|
|-----------------------------------------------------------|
|-------------------5/4------5/4----------------------------|
|2--------5/4-x-x---5/4---x--5/4----------------------------|
|2--------5/4-x-x---3/2---x--3/2-----2-2-0------------------|
|0--------3/2-x-x---------x----------------3-2-0------------|


|-----------------------------------------------------------|
|-----------------------------------------------------------|
|-------------------5/4------5/4----------------------------|
|2--------5/4-x-x---5/4---x--5/4----------------------------|
|2--------5/4-x-x---3/2---x--3/2-----2-2--------------------|
|0--------3/2-x-x---------x---------------3-3-0-------------|
Solo 2

|-----------------------------------------------------------------|
|--------------------------------------------------------10-------|
|----------------------------------------7---7---9--/11-----------|
|------------------------7---7--/9--------------------------------|
|--------5---5---7--/9--------------------------------------------|
|7----------------------------------------------------------------|

|--------15--17--19------19------19-------------------------------|
|17--19-----------------------------------------------------------|
|-----------------------------------------------------------------|
|-----------------------------------------------------------------|
|-----------------------------------------------------------------|
|-----------------------------------------------------------------|

|17--19--17------15------17--19--17--------------17--19-17-17--15-|
|----------------------------------------19-----------------------|
|-----------------------------------------------------------------|
|-----------------------------------------------------------------|
|-----------------------------------------------------------------|
|-----------------------------------------------------------------|

|14-----------14---15----17--15--14--15--14-15-14-----14----------|
|-------15-----------------------------------------17----17-17-14-|
|-----------------------------------------------------------------|
|-----------------------------------------------------------------|
|-----------------------------------------------------------------|
|-----------------------------------------------------------------|

|-----------------------------------------------------------------|
|----15-14-16--14-------------------------------------------------|
|------------------16--14-/12--14--12------12---------------------|
|--------------------------------------16------16--14--12---------|
|------------------------------------------------------------16---|
|-----------------------------------------------------------------|

|--------------17-------15--------14--------12-------10------7----|
|-------17-/15----15-14----14-/12----12-/10----10-/8----8-/7---7--|
|----------------------------------------------------------------7|
|12--14-----------------------------------------------------------|
|-----------------------------------------------------------------|
|-----------------------------------------------------------------|

|------------------------------------|
|------------------------------------|
|----7---9-----9/11------9--9-9-9---9|
|9-----------------------------------|
|------------------------------------|
|------------------------------------|



|----------------------------------------------------------------|
|----------------------------------------------------------------|
|----------------------------------------------------------------|
|----------------------------------------------------------------|
|----------------------------------------------------------------|
|0-0-0-0-0-0-0-0-0-0-0-0-0-0-0-0-0-0-0-0-0-0-0-0-0-0-0-0-0-0-0-0-|

|----------------------------------------------------------------|
|----------------------------------------------------------------|
|----------------------------------------------------------------|
|0-2---0-2-----------------------0-1---0-1---0-1---0-2-----------|
|0-2---0-2-----------------------0-1---0-1---0-1---0-2-----------|
|----------0-0-0-0-0-0-0-0-0-0-0-----------------------0-0-0-0-0-|


|----------------------------------------------------------------| 
|----------------------------------------------------------------| 
|----------------------------------------------------------------| 
|0-1---0-1-----------------------0-1---0-1---0-1---0-2-----------| 
|0-1---0-1-----------------------0-1---0-1---0-1---0-2-----------| 
|----------0-0-0-0-0-0-0-0-0-0-0-----------------------0-0-0-0-0-|

then play

|--------------------------------|-------------------------------|
|--------------------------------|-------------------------------|
|--------------------------------|------7-7----------------------|
|0-2---2-2-----------------------|0-2---7-7----------------------|
|0-2---2-2-----------------------|0-2---5-5----------------------|
|------0-0-----------------------|-------------------------------|

|--------------------------------|-------------------------------|
|--------------------------------|-------------------------------|
|--------------------------------|------5-5-------------4-4------|
|0-2---3-3-----------------------|0-2---5-5-------5-4---4-4------|
|0-2---3-3-----------------------|0-2---3-3-------3-2---2-2------|
|------1-1-----------------------|-------------------------------|

Solo 3

|----------------------------------------------------------------|
|----------------------------------------------------------------|
|12--12--12--12--12--12--12--12--12--12--12--12--12--12--12--12--|
|----------------------------------------------------------------|
|----------------------------------------------------------------|
|----------------------------------------------------------------|

|----------------------------------------------------------------|
|----------------------------------------------------------------|
|12--16--12--12--12--12--12--12--12--12--12--12--12--12--12--12--|
|----------------------------------------------------------------|
|----------------------------------------------------------------|
|----------------------------------------------------------------|

|------------------------------------------------------------12--|
|--------------------------------13--12--12--12--15--12--12------|
|14--12--12--12--16--12--12--12----------------------------------|
|----------------------------------------------------------------|
|----------------------------------------------------------------|
|----------------------------------------------------------------|

|13--12--12--12--15----12----12--17\---------------------12------|
|-----------------------------------------------/12--------------|
|----------------------------------------------------------------|
|----------------------------------------------------------------|
|----------------------------------------------------------------|
|----------------------------------------------------------------|

|17--15--12--------------12------17--15--12----------------------|
|----------------17--15--------------------------17--15--12------|
|----------------------------------------------------------------|
|----------------------------------------------------------------|
|----------------------------------------------------------------|
|----------------------------------------------------------------|

|17--15--12--------------12------17--15--12--------------12------|
|----------------17--15--------------------------15--12----------|
|----------------------------------------------------------------|
|----------------------------------------------------------------|
|----------------------------------------------------------------|
|----------------------------------------------------------------|

|17--------------------------------------------------17----15----|
|------------------------------------------------17--------------|
|----------------------------------------------------------------|
|----------------------------------------------------------------|
|----------------------------------------------------------------|
|----------------------------------------------------------------|

|14--------------14----------------------------------------------|
|--------15--------------15--------------------------------------|
|------------------------------------------------2---------------|
|--------------------------------------------------------4-------|
|----------------------------------------------------------------|
|----------------------------------------------------------------|

|----------------------------------------------------------------|
|----------------------------------------------------------------|
|----------------4-------2---------------2-------4---2-----------|
|4b------------------------------4-----------------------4-------|
|----------------------------------------------------------------|
|----------------------------------------------------------------|

|----------------------------------------------------------------|
|----------------------------------------------------------------|
|--------------------------------------------------------4-------|
|3-------2---------------2---------------------------------------|
|----------------5-----------------------------------------------|
|----------------------------------------------------------------|

|----------------------------------------------------------------|
|----------------5-----------------------5---------------5-------|
|7b-----------------------7b----------------------7b-------------|
|----------------------------------------------------------------|
|----------------------------------------------------------------|
|----------------------------------------------------------------|

--------5---------------5-------------------------------12------|
7b--------------7b--------------7\--------------14--------------|

--------------------------------15^--------15--------14---------|
15^--------15--------12-----------------------------------------|

12-------------------12-----------------------------------------|
-----------15-------------------15^---------------------17--17--|

15----------15--17--15------15--19--15-------/--21------19--22--|
----17--18--------------19--------------------------------------|

22--19------22--22b-------------22b-------|
------------------------------------------|
------------------------------------------|
------------------------------------------|
------------------------------------------|
------------------------------------------|

Riff After Solo

------------5-s-7-7-7-5---7-----9---------------9-9-9-7---9-----|

10--9-8---------8-8-8-10--8---7-----------------6-6-6-7---9-----|
--------------------------+-------------------------------------|

7---------------7-7-7-5---7-----9---------------9-9-9-7---9---9-|

10--9-8---------8-8-8-10--8---7-----------------6-6-6-7---9---7-|

Solo 4


-------------------------------7---7---7---6-------7------------|
7---------------------------------------------------------------|

9-------10--12------------------12--12--12--10------12----------|

--------12--------------12------14b---------14b---------14b-----|
------------14------14------------------------------------------|
12-/14----------------------------------------------------------|

--------------------------------12----------12------------------|
12------------------------------12----------12------------------|
----14------------------14--14------14--14--------------14--14--|

12----------12------------------------------------------12------|
12----------12----------12--14--14b-12--14--14------14----------|
----14--14----------14------------------------------------------|

                                                        
----12----------------------12--15b---------------------12-15-12|
--------12--15b---------15--------------------------------------|
14b-------------------------------------------------------------|


15-12-15--------------------------------------------------------|
--------12------------------------------------------------------|
------------14--12------12--14b-----12-14--14b---12-14--14b---12|
--------------------14------------------------------------------|

14--14b---12-14--14b------------11--11--11--12------14---/--16--|

------------------------------|
12-----/----17--17------------|
------------------------------|
------------------------------|
------------------------------|
------------------------------|


Outro

--------------------------------------7-7-----------------------|
0-2---2-2-----------------------0-2---7-7-----------------------|
0-2---2-2-----------------------0-2---5-5-----------------------|
------0-0-------------------------------------------------------|

--------------------------------------5-5-------5-4---4-4-------|
0-2---3-3-----------------------0-2---5-5-------5-4---4-4-------|
0-2---3-3-----------------------0-2---3-3-------3-2---2-2-------|
------1-1-------------------------------------------------------|

--------------------------------------7-7-------7--7--7-7-------|
0-2---2-2-------2--2--2-2-------0-2---7-7-------7--7--7-7-------|
0-2---2-2-------2--2--2-2-------0-2---5-5-------5--5--5-5-------|
------0-0-------0--0--0-0---------------------------------------|

--------------------------------------5-5-------4--4--4-4-------|
0-2---3-3-------3--3--3-3-------0-2---5-5-------4--4--4-4-------|
0-2---3-3-------3--3--3-3-------0-2---3-3-------2--2--2-2-------|
------1-1-------1--1--1-1---------------------------------------|

4--4--4-4-------4--4--4-4-------4-------2-----------------------|
4--4--4-4-------4--4--4-4-------4-------2-------5-------4----2--|
2--2--2-2-------2--2--2-2-------2-------0-------5-------4----2--|
------------------------------------------------3-------2----0--|

thats it i think, rate it please!!





Comments


Popular Metallica tabs & chords
53rd And 3rd Bass Tabs
All Nightmare Long 5 Tabs
Blackened (Solo) Tabs
Fuel Tabs
King Nothing 1 Tabs
Mercyful Fate Medley Tabs
Sabbra Cadabra 2 Tabs
The Unforgiven Ii 1 Tabs
Trapped Under Ice 1 Tabs
Fade To Black Ukulele


Song lyrics



↑ Back to top | Tablatures and chords are parodies/interpretations of the original songs. You may use it for private study, scholarship, research or language learning purposes only
© 2014 AZChords.com Contact us | Privacy policy | DMCA | Add/correct tabs | Request tabs | Top 50 tabs