» » »

Sabbra Cadabra National Acrobat Tabs (ver.1)

Artists:  A B C D E F G H I J K L M N O P Q R S T U V W X Y Z # 

Sabbra Cadabra National Acrobat Tabs (ver.1)

Metallica
Rating:
0/5 (0 votes)

Hard to play? Try these video lessons and learn fast.
                Sabbra Cadabra
originally performed by Black Sabbath
as performed by Metallica on Garage Inc.,


(riffs 8 through 12) are from "A National Acrobat" also by Black Sabbath

tune all guitars down 1 full step
1)
d------------------------------------------------------------
A------------------------------------------------------------
F--------7--------------7------------------------------------
C----------9-9-9~~--------9-9-9~~----7--------------7--------
G--7h8h9----------7h8h9----------7h9---9-7-5----7h9---9-7-5--
D--------------------------------------------7~~------------7
intro


2)
F--4---6---7---9--
C--4---6---7---9-7
G--2---4---5---7-7
D----------------5
played under riff 1)


3a) James
F--2--4-4--------------2--4-4----2---2----
C--2--4-4--------------2--4-4----2-5-2-4-2
G--0--2-2--------------0--2-2----0-5-0-4-2
D----------------------------------3---2-0

3b) Kirk
d------------------------------------------------------
A--10-12-12~~12p10----10-12-12~~10-10-10~~-------------
F------------------11---------------------11-9--11-9---
C---------------------------------------------------9-9
G------------------------------------------------------
D------------------------------------------------------


4)
F--2--4-4-----2--4-4--------2-2-----2--4-4
C--2--4-4-----2--4-4--------2-2-----2--4-4
G--0--2-2-----0--2-2-----2--0-0-----0--2-2
D------------------------3----------------
Feel so good, feel so fine


5a) Kirk
d-----0-------------2
A-----0-------------2
F--------------------
C--2--------------4--
G--2--------------4--
D--0--------------2--

5b) James
F-----9-9\7/9-9~~----11-11\9\7/9/11/16
C--2--------------4-------------------
G--2--7-7\5/7-7~~-4--9--9-\7\5/7/9-/14
D--0--------------2-------------------
"Someone to love me"

5c) James at 2:10 (instead of 5b)
F-----9-9\7/9-9~~----11-11\9\7/9/11/4
C--2--------------4------------------
G--2--7-7\5/7-7~~-4--9--9-\7\5/7/9-/2
D--0--------------2------------------


6a) James
d-----------------------
A------------3p0-----3p0
F----------------4------
C----------4-------4----
G------0-2--------------
D--0-3------------------
with wah

6b) Kirk
F------------------------------------7------------------
C--9-7-----------9-7-------------------7-9--9-7---------
G------9-7-----------9-7---------7-9------------9-7-----
D----------10-9----------10-9-7---------------------10-9


7)
F--4-2-------7-6--4--2------
C--4-2--4-2--7-6--4--2--4--2
G--2-0--4-2--5-4--2--0--4--2
D-------2-0-------------2--0


8a) James
F----------------------------------2-0------------
C---------------------3-2~----------------2~3~2~3~
G--3h5-5-5--5-3h5-3h5------3h5-5-5-----3----------
D-------------------------------------------------

8b) Kirk
F---------------------2-0----------2-0------------
C--2h3-3-3--3-2h3-2h3------2h3-3-3-----2--2~3~2~3~
G-------------------------------------------------
D-------------------------------------------------


9)
F--7-------5----
C--7---3---5---5
G--5---3---3---5
D------1-------3
"I am the world that hides..."


10)
F--3---2--------
C--3---2---3---5
G--1---0---3---5
D----------1---3
"I've lived 1000 times..."


11)
F-------------------------------7--X-X-X-X
C-----------------3-2-----------7--X-X-X-X
G--3h5--5-3h5-3h5-----3-0-3h5---5--X-X-X-X
D----------------------------------X-X-X-X
"You gotta believe me"
one guitar with wah, one without


12)      ^          ^
F------------------------------------------9
C--7--5--------7--5--------7--9--10\9-7--9-9
G--5--3--5--3--5--3--5--3--5--7--8-\7-5--7-7
D--------3--1--------3--1------------------0
            
Hard to play? Try these video lessons and learn fast. | Correct




comments powered by Disqus
↑ Back to top | Tablatures and chords are parodies/interpretations of the original songs. You may use it for private study, scholarship, research or language learning purposes only