>
 >
Sabbra Cadabra 1

Sabbra Cadabra 1 Guitar Tabs

Metallica - Sabbra Cadabra 1 chords, tabs, tablatures, lyrics

Guitar lessons | Add/correct | Request | Top 50 tabs Artists:  A B C D E F G H I J K L M N O P Q R S T U V W X Y Z 0-9

Sabbra Cadabra 1 Guitar Tabs – Metallica

CD, Sheet music, Poster

Do you like Sabbra Cadabra 1? Share with your friends now
TabsTabs v2Tabs v3
Sabbra Cadabra                                  


                                                       Metallica (Black Sabbath)
James Hetfield (Dist Gtr)




                                                        
D||------------------------|---------------------------|
A||------------------------|---------------------------|
F||---------------------7--|------------------------7--|
C||------------------------|--9--9----9~---------------|
G||------------7--8h-9-----|---------------7--8h-9-----|
D||------------------------|---------------------------|


                                                            
---------------------------|-------------------------------|
---------------------------|-------------------------------|
---------------------------|-------------------------------|
--9--9----9~------------7--|----------------------------7--|
---------------7--8h-9-----|--9/-7--5----------7--8h-9-----|
---------------------------|-----------7--7~---------------|


                                                            
-------------------------------|---------------------------|
-------------------------------|---------------------------|
----------------------------7--|------------------------7--|
-------------------------------|--9--9----9~---------------|
--9/-7--5----------7--8h-9-----|---------------7--8h-9-----|
-----------7--7~---------------|---------------------------|


                                                            
---------------------------|-------------------------------|
---------------------------|-------------------------------|
---------------------------|-------------------------------|
--9--9----9~------------7--|----------------------------7--|
---------------7--8h-9-----|--9/-7--5----------7--8h-9-----|
---------------------------|-----------7--7~---------------|


                                                            
-------------------------------|---------------------------|
-------------------------------|---------------------------|
----------------------------7--|------------------------7--|
-------------------------------|--9--9----9~---------------|
--9/-7--5----------7--8h-9-----|---------------7--8h-9-----|
-----------7--7~---------------|---------------------------|


                                                            
---------------------------|-------------------------------|
---------------------------|-------------------------------|
---------------------------|-------------------------------|
--9--9----9~------------7--|----------------------------7--|
---------------7--8h-9-----|--9/-7--5----------7--8h-9-----|
---------------------------|-----------7--7~---------------|


                                                            
-------------------------------|---------------------------|
-------------------------------|---------------------------|
----------------------------7--|---------------------------|
-------------------------------|--9--9----9~------------7--|
--9/-7--5----------7--8h-9-----|---------------7--8h-9-----|
-----------7--7~---------------|---------------------------|


                                                            
---------------------------|-------------------------------|
---------------------------|-------------------------------|
---------------------------|-------------------------------|
--9--9----9~------------7--|----------------------------7--|
---------------7--8h-9-----|--9/-7--5----------7--8h-9-----|
---------------------------|-----------7--7~---------------|


                                                      
----------------------------|------------------------|
----------------------------|------------------------|
----------------------------|------------------------|
----------------------------|---------------9--------|
--9/-7--5----------5--7--5--|----------9-------------|
-----------7--7~------------|--7----7----------7--7/-|


                                                           
---------------------------|------------------------------|
---------------------------|------------------------------|
---------------------------|------------------------------|
----------------11-----11/-|--12--------------12----------|
----------11---------------|------------12----------------|
--9----9------------9--9/--|--10----10------------10--10/-|


                                                      
----------------------------|------------------------|
----------------------------|------------------------|
----------------------------|------------------------|
------14------14----14------|----------9----9-----9/-|
--------------14----14------|----------9-------------|
--12------12--12----12------|--7----7----------7--7/-|


                                                            
----------------------------|------------------------------|
----------------------------|------------------------------|
----------------------------|------------------------------|
--11--11-----11---------11--|--12--------12----12----------|
-------------11-------------|------------12----------------|
--9-------9----------9--9---|--10----10------------10--10/-|


                                                          
--------------------------------|------------------------|
--------------------------------|------------------------|
--------------------------------|------------------------|
------14----14--11/-16/-14--14--|------------------------|
------------14--11/-16/-14--14--|--7--9----9----9--9--9--|
--12----------------------------|--7--7----7----7--7--7--|


                                                          
------------------------|--------------------------------|
------------------------|--------------------------------|
------------------------|--------------------------------|
------------------------|--------------------------------|
--7--9----9----9--9--9--|--7----6----7----6----4----2----|
--7--7----7----7--7--7--|--5----4----5----4----2----0----|


                                                                           
------------------------|------------------------|------------------------|
------------------------|------------------------|------------------------|
------------------------|------------------------|------------------------|
------------------------|------------------------|------------------------|
--7--9----9----9--7--7--|--7--9----9----9--9--9--|--7--9----9----9--9--9--|
--7--7----7----7--7--7--|--7--7----7----7--7--7--|--7--7----7----7--7--7--|


                                                          
--------------------------------|------------------------|
--------------------------------|------------------------|
--------------------------------|------------------------|
--------------------------------|------------------------|
--7----6----7----6----4----2----|--7--9----9----9--7--7--|
--5----4----5----4----2----0----|--7--7----7----7--7--7--|


                                                                           
------------------------|------------------------|------------------------|
------------------------|------------------------|------------------------|
------------------------|------------------------|------------------------|
------------------------|------------------------|------------------------|
--7--9----9----9--9--9--|--7--9----9----9--9--9--|--7--7----7----7--7--7--|
--7--7----7----7--7--7--|--7--7----7----7--7--7--|--5--5----5----5--5--5--|


                                                                           
------------------------|------------------------|------------------------|
------------------------|------------------------|------------------------|
------------------------|------------------------|------------------------|
------------------------|------------------------|------------------------|
--9--9----9----9--7--7--|--7--9----9----9--9--9--|--7--9----9----9--9--9--|
--7--7----7----7--7--7--|--7--7----7----7--7--7--|--7--7----7----7--7--7--|


                                                                                
------------------|------------------|--------------------|--------------------|
------------------|------------------|--------------------|--------------------|
------------------|------------------|--------------------|--------------------|
------------------|------------------|--2--------2--------|--------------2--2--|
------------------|------------------|--2--------2--------|--------------2--2--|
------------------|------------------|--0--------0--------|--------------0--0--|


                                                                      
--------------------|-----------------------|------------------------|
--------------------|-----------------------|------------------------|
--------------------|-----------------------|------------------------|
--4--------4--------|--4----4----4----------|------------------------|
--4--------4--------|--4----4----4----------|--7--9----9----9--9--9--|
--2--------2--------|--2----2----2--14/-----|--7--7----7----7--7--7--|


                                                          
------------------------|--------------------------------|
------------------------|--------------------------------|
------------------------|--------------------------------|
------------------------|--------------------------------|
--7--9----9----9--9--9--|--7----6----7----6----4----2----|
--7--7----7----7--7--7--|--5----4----5----4----2----0----|


                                                                      
------------------------|--------------------|-----------------------|
------------------------|--------------------|-----------------------|
------------------------|--------------------|--9--9--7--9----9------|
------------------------|--2--------2--------|-----------------------|
--7--9----9----9--------|--2--------2--------|--7--7--5--7----7------|
--7--7----7----7--10----|--0--------0--------|-----------------------|


                                                                             
--------------------|------------------------------|------------------------|
--------------------|------------------------------|------------------------|
--------------------|--11--11--11--11--14--16------|------------------------|
--4--------4--------|------------------------------|------------------------|
--4--------4--------|--9---9---9---9---12--14------|--7--9----9----9--9--9--|
--2--------2--------|------------------------------|--7--7----7----7--7--7--|


                                                          
------------------------|--------------------------------|
------------------------|--------------------------------|
------------------------|--------------------------------|
------------------------|--------------------------------|
--7--9----9----9--9--9--|--7----6----7----6----4----2----|
--7--7----7----7--7--7--|--5----4----5----4----2----0----|


                                                                           
------------------------|------------------------|------------------------|
------------------------|------------------------|------------------------|
------------------------|------------------------|------------------------|
------------------------|------------------------|------------------------|
--7--9----9----9--7--7--|--7--9----9----9--9--9--|--7--9----9----9--9--9--|
--7--7----7----7--7--7--|--7--7----7----7--7--7--|--7--7----7----7--7--7--|


                                                          
--------------------------------|------------------------|
--------------------------------|------------------------|
--------------------------------|------------------------|
--------------------------------|------------------------|
--7----6----7----6----4----2----|--7--9----9----9--7--7--|
--5----4----5----4----2----0----|--7--7----7----7--7--7--|


                                                                           
------------------------|------------------------|------------------------|
------------------------|------------------------|------------------------|
------------------------|------------------------|------------------------|
------------------------|------------------------|------------------------|
--7--9----9----9--9--9--|--7--9----9----9--9--9--|--7--7----7----7--7--7--|
--7--7----7----7--7--7--|--7--7----7----7--7--7--|--5--5----5----5--5--5--|


                                                                           
------------------------|------------------------|------------------------|
------------------------|------------------------|------------------------|
------------------------|------------------------|------------------------|
------------------------|------------------------|------------------------|
--9--9----9----9--7--7--|--7--9----9----9--9--9--|--7--9----9----9--9--9--|
--7--7----7----7--7--7--|--7--7----7----7--7--7--|--7--7----7----7--7--7--|


                                                                                
------------------|------------------|--------------------|--------------------|
------------------|------------------|--------------------|--------------------|
------------------|------------------|--------------------|--------------------|
------------------|------------------|--2--------2--------|--------------2--2--|
------------------|------------------|--2--------2--------|--------------2--2--|
------------------|------------------|--0--------0--------|--------------0--0--|


                                                                      
--------------------|-----------------------|------------------------|
--------------------|-----------------------|------------------------|
--------------------|-----------------------|------------------------|
--4--------4--------|--4----4----4----------|------------------------|
--4--------4--------|--4----4----4----------|--7--9----9----9--9--9--|
--2--------2--------|--2----2----2--14/-----|--7--7----7----7--7--7--|


                                                          
------------------------|--------------------------------|
------------------------|--------------------------------|
------------------------|--------------------------------|
------------------------|--------------------------------|
--7--9----9----9--9--9--|--7----6----7----6----4----2----|
--7--7----7----7--7--7--|--5----4----5----4----2----0----|


                                                                      
------------------------|--------------------|-----------------------|
------------------------|--------------------|-----------------------|
------------------------|--------------------|--9--9--7--9----9------|
------------------------|--2--------2--------|-----------------------|
--7--9----9----9--------|--2--------2--------|--7--7--5--7----7------|
--7--7----7----7--10----|--0--------0--------|-----------------------|


                                                                       
--------------------|--------------------------|----------------------|
--------------------|--------------------------|--------------3h-0----|
--------------------|--11--11--9--9--7--9------|---------4------------|
--4--------4--------|--------------------------|----------------------|
--4--------4--------|--9---9---7--7--5--7------|--2-------------------|
--2--------2--------|--------------------------|----------------------|


                                                                             
--------------------------|----------------------|--------------------------|
-----------3h-0-----------|--------------3h-0----|-----------3h-0-----------|
--4-----4-----------------|---------4------------|--4-----4-----------------|
-----4--------------------|----------------------|-----4--------------------|
--------------------0--1--|--2-------------------|--------------------0--1--|
-----------------2--------|----------------------|-----------------2--------|


                                                                         
----------------------|--------------------------|----------------------|
--------------3h-0----|-----------3h-0-----------|--------------3h-0----|
---------4------------|--4-----4-----------------|---------4------------|
----------------------|-----4--------------------|----------------------|
--2-------------------|--------------------0--1--|--2-------------------|
----------------------|-----------------2--------|----------------------|


                                                                             
--------------------------|----------------------|--------------------------|
-----------3h-0-----------|--------------3h-0----|-----------3h-0-----------|
--4-----4-----------------|---------4------------|--4-----4-----------------|
-----4--------------------|----------------------|-----4--------------------|
--------------------0--1--|--2-------------------|--------------------0--1--|
-----------------2--------|----------------------|-----------------2--------|


                                                                         
----------------------|--------------------------|----------------------|
--------------3h-0----|-----------3h-0-----------|--------------3h-0----|
---------4------------|--4-----4-----------------|---------4------------|
----------------------|-----4--------------------|----------------------|
--2-------------------|--------------------0--1--|--2-------------------|
----------------------|-----------------2--------|----------------------|


                                                                             
--------------------------|----------------------|--------------------------|
-----------3h-0-----------|--------------3h-0----|-----------3h-0-----------|
--4-----4-----------------|---------4------------|--4-----4-----------------|
-----4--------------------|----------------------|-----4--------------------|
--------------------0--1--|--2-------------------|--------------------0--1--|
-----------------2--------|----------------------|-----------------2--------|


                                                                         
----------------------|--------------------------|----------------------|
--------------3h-0----|-----------3h-0-----------|--------------3h-0----|
---------4------------|--4-----4-----------------|---------4------------|
----------------------|-----4--------------------|----------------------|
--2-------------------|--------------------0--1--|--2-------------------|
----------------------|-----------------2--------|----------------------|


                                                                       
--------------------------|---------------------|---------------------|
-----------3h-0-----------|---------------------|---------------------|
--4-----4-----------------|---------------------|---------------------|
-----4--------------------|--4------2-----------|-----------7----6----|
--------------------0--1--|--2------0------4----|----2------5----4----|
-----------------2--------|----------------2----|----0----------------|


                                                                          
--------------------|--------------------||------------------------------|
--------------------|--------------------||------------------------------|
--------------------|--------------------||*-----------------------------|
--4--------2--------|--------------------||*-----------------------3-2~--|
--2--------0--------|--4--------2--------||---3h5-5--5~--5-3h5-3h5-------|
--------------------|--2--------0--------||------------------------------|


                                                               
------------------------------||------------------------------|
------------------------------||------------------------------|
-----------------------------*||*-----------------------------|
-------------5r-------2h3-2--*||*-----------------------3-2~--|
--3h5-5-5-5-----3-------------||---3h5-5--5~--5-3h5-3h5-------|
--------------------5---------||------------------------------|


                                                           
-----------------------------||---------------------------|
-----------------------------||---------------------------|
----------------------------*||---------------------------|
------------5r-------2h3-2--*||--7----7--7--10----10--10--|
--3h5-5-5------3-------------||--5----5--5--8-----8---8---|
-------------------5---------||-------------8-----8---8---|


                                                             
------------------------------|-----------------------------|
------------------------------|-----------------------------|
------------------------------|-----------------------------|
----------------12----12--12--|-----------------------3-2~--|
--10----10--10--12----12--12--|--3h5-5--5~--5-3h5-3h5-------|
--8-----8---8---10----10--10--|-----------------------------|


                                                         
----------------------------|---------------------------|
----------------------------|---------------------------|
----------------------------|---------------------------|
------------5r-------2h3-2--|--7----7--7--10----10--10--|
--3h5-5-5------3------------|--5----5--5--8-----8---8---|
-------------------5--------|-------------8-----8---8---|


                                                        
------------------------------|------------------------|
------------------------------|------------------------|
------------------------------|------------------------|
----------------12----12--12--|------------------------|
--10----10--10--12----12--12--|--8----8--8--7----7--7--|
--8-----8---8---10----10--10--|--6----6--6--5----5--5--|


                                                       
------------------------|-----------------------------|
------------------------|-----------------------------|
------------------------|-----------------------------|
------------------------|-----------------------3-2~--|
--3----3--3--5----5--5--|--3h5-5--5~--5-3h5-3h5-------|
--1----1--1--3----3--3--|-----------------------------|


                                                                               
----------------------------|------------------------|------------------------|
----------------------------|------------------------|------------------------|
----------------------------|------------------------|------------------------|
------------5r-------2h3-2--|------------------------|------------------------|
--3h5-5-5------3------------|--8----8--8--7----7--7--|--3----3--3--5----5--5--|
-------------------5--------|--6----6--6--5----5--5--|--1----1--1--3----3--3--|


                                                               
-----------------------------|--------------------------------|
-----------------------------|-------------------------10b----|
-----------------------------|-------------------------10b----|
---------------------3b------|--------------------------------|
--3-5--------3h5-3h5---5-3---|--3-5-------------------------0-|
-----------5---------------5-|-----------5/10-10-10-10--------|


                                                               
-----------------------------|--------------------------------|
-----------------------------|-------------------------10b----|
-----------------------------|-------------------------10b----|
---------------------3b------|--------------------------------|
--3-5--------3h5-3h5---5-3---|--3-5-------------------------0-|
-----------5---------------5-|-----------5/10-10-10-10--------|


                                                                 
-----------------------------|-------------------------10-10b---|
-----------------------------|-------------------------10-10b---|
-----------------------------|-------------------------10-10b---|
---------------------3b------|----------------------------------|
--3-5--------3h5-3h5---5-3---|--3-5---------------------------0-|
-----------5---------------5-|-----------5/10-10-10-10----------|


                                                                
-----------------------------|---------------------------------|
-----------------------------|------------------12-10b-12-10---|
-----------------------------|------------------12-10b-12-10---|
---------------------3b------|---------------------------------|
--3-5--------3h5-3h5---5-3---|--3-5--------------------------0-|
-----------5---------------5-|------------10-10----------------|


                                                                    
-----------------------------|-------------------------------------|
-----------------------------|-------------------------------------|
-----------------------------|-------------------------------------|
---------------------3b------|-------------------------------------|
--3-5--------3h5-3h5---5-3---|--3-5--------------------------------|
-----------5---------------5-|--------13/-1/-10-10-10-10-10-10-10/-|


                                                                 
-----------------------------|----------------------------------|
-----------------------------|-------------------10--10--10-----|
-----------------------------|-------------------10--10--10-----|
---------------------3b------|--3b---------------10--10--10-----|
--3-5--------3h5-3h5---5-3---|----5--x-5/-----------------------|
-----------5---------------5-|------------x-5/10------------13/-|


                                                                              
-------------------------|-------------------------|-------------------------|
-------------------------|-------------------------|-------------------------|
-------------------------|-------------------------|-------------------------|
-------------------------|-------------------------|-------------------------|
--5~--5-3---3------------|--5~--5-3---3------------|--5~--5-3---3------------|
--------------3b---1---1-|--------------3b---1---1-|--------------3b---1--3--|


                                                            
-------------------------------|---------------------------|
-------------------------------|---------------------------|
-------------------------------|------------------------7--|
-------------------------------|--9--9----9~---------------|
-------------------------------|---------------7--8h-9-----|
--5-5-5-5-5-5-5-5-5-5-5-5-5----|---------------------------|


                                                            
---------------------------|-------------------------------|
---------------------------|-------------------------------|
---------------------------|-------------------------------|
--9--9----9~------------7--|----------------------------7--|
---------------7--8h-9-----|--9/-7--5----------7--8h-9-----|
---------------------------|-----------7--7~---------------|


                                                            
-------------------------------|---------------------------|
-------------------------------|---------------------------|
----------------------------7--|---------------------------|
-------------------------------|--9--9----9~------------7--|
--9/-7--5----------7--8h-9-----|---------------7--8h-9-----|
-----------7--7~---------------|---------------------------|


                                                            
---------------------------|-------------------------------|
---------------------------|-------------------------------|
---------------------------|-------------------------------|
--9--9----9~------------7--|----------------------------7--|
---------------7--8h-9-----|--9/-7--5----------7--8h-9-----|
---------------------------|-----------7--7~---------------|


                                                                                
-----------------------------|------------------------|------------------------|
-----------------------------|------------------------|------------------------|
-----------------------------|------------------------|------------------------|
-----------------------------|------------------------|------------------------|
--9/-7--5-----7/-9--7--------|--7--9----9----9--9--9--|--7--9----9----9--9--9--|
-----------7--7----------10--|--7--7----7----7--7--7--|--7--7----7----7--7--7--|


                                                                           
------------------------|------------------------|------------------------|
------------------------|------------------------|------------------------|
------------------------|------------------------|------------------------|
------------------------|------------------------|------------------------|
--7--7----7----7--7--7--|--9--9----9----9--7--7--|--7--9----9----9--9--9--|
--5--5----5----5--5--5--|--7--7----7----7--7--7--|--7--7----7----7--7--7--|


                                                               
------------------------|------------------|------------------|
------------------------|------------------|------------------|
------------------------|------------------|------------------|
------------------------|------------------|------------------|
--7--9----9----9--9--9--|------------------|------------------|
--7--7----7----7--7--7--|------------------|------------------|


                                                               
--------------------|--------------------|--------------------|
--------------------|--------------------|--------------------|
--------------------|--------------------|--------------------|
--2--------2--------|--------------2--2--|--4--------4--------|
--2--------2--------|--------------2--2--|--4--------4--------|
--0--------0--------|--------------0--0--|--2--------2--------|


                                                                          
-----------------------|------------------------|------------------------|
-----------------------|------------------------|------------------------|
-----------------------|------------------------|------------------------|
--4----4----4----------|------------------------|------------------------|
--4----4----4----------|--7--9----9----9--9--9--|--7--9----9----9--9--9--|
--2----2----2--14/-----|--7--7----7----7--7--7--|--7--7----7----7--7--7--|


                                                                               
--------------------------------|------------------------|--------------------|
--------------------------------|------------------------|--------------------|
--------------------------------|------------------------|--------------------|
--------------------------------|------------------------|--2--------2--------|
--7----6----7----6----4----2----|--7--9----9----9--------|--2--------2--------|
--5----4----5----4----2----0----|--7--7----7----7--10----|--0--------0--------|


                                                                            
-----------------------|--------------------|------------------------------|
-----------------------|--------------------|------------------------------|
--9--9--7--9----9------|--------------------|--11--11--11--11--14--16------|
-----------------------|--4--------4--------|------------------------------|
--7--7--5--7----7------|--4--------4--------|--9---9---9---9---12--14------|
-----------------------|--2--------2--------|------------------------------|


                                                  
------------------------|------------------------|
------------------------|------------------------|
------------------------|------------------------|
------------------------|------------------------|
--7--9----9----9--9--9--|--7--9----9----9--9--9--|
--7--7----7----7--7--7--|--7--7----7----7--7--7--|


                                                          
--------------------------------|------------------------|
--------------------------------|------------------------|
--------------------------------|------------------------|
--------------------------------|------------------------|
--7----6----7----6----4----2----|--7--9----9----9--7--7--|
--5----4----5----4----2----0----|--7--7----7----7--7--7--|


                                                  
------------------------|------------------------|
------------------------|------------------------|
------------------------|------------------------|
------------------------|------------------------|
--7--9----9----9--9--9--|--7--9----9----9--9--9--|
--7--7----7----7--7--7--|--7--7----7----7--7--7--|


                                                                              
--------------------------------|------------------------|-------------------|
--------------------------------|------------------------|-------------------|
--------------------------------|------------------------|-------------------|
--------------------------------|------------------------|-------------------|
--7----6----7----6----4----2----|--7--9----9----9--7--7--|--8----------------|
--5----4----5----4----2----0----|--7--7----7----7--7--7--|--6----------------|


                                                                             
------------------|------------------|------------------|------------------||
------------------|------------------|------------------|------------------||
------------------|------------------|------------------|------------------||
------------------|------------------|------------------|------------------||
------------------|------------------|------------------|------------------||
------------------|------------------|------------------|------------------||

 
Kirk Hammet (Dist. Gtr)

                                                                               
D||------------------|------------------|------------------|------------------|
A||------------------|------------------|------------------|------------------|
F||------------------|------------------|------------------|------------------|
C||------------------|------------------|------------------|------------------|
G||------------------|------------------|------------------|------------------|
D||------------------|------------------|------------------|------------------|


                                                                            
------------------|------------------|------------------|------------------|
------------------|------------------|------------------|------------------|
------------------|------------------|------------------|------------------|
------------------|------------------|------------------|------------------|
------------------|------------------|------------------|------------------|
------------------|------------------|------------------|------------------|


                                                            
-------------------------------|---------------------------|
-------------------------------|---------------------------|
----------------------------7--|------------------------7--|
-------------------------------|--9--9----9~---------------|
--9/-7--5----------7--8h-9-----|---------------7--8h-9-----|
-----------7--7~---------------|---------------------------|


                                                            
---------------------------|-------------------------------|
---------------------------|-------------------------------|
---------------------------|-------------------------------|
--9--9----9~------------7--|----------------------------7--|
---------------7--8h-9-----|--9/-7--5----------7--8h-9-----|
---------------------------|-----------7--7~---------------|


                                                            
-------------------------------|---------------------------|
-------------------------------|---------------------------|
----------------------------7--|------------------------7--|
-------------------------------|--9--9----9~---------------|
--9/-7--5----------7--8h-9-----|---------------7--8h-9-----|
-----------7--7~---------------|---------------------------|


                                                            
---------------------------|-------------------------------|
---------------------------|-------------------------------|
---------------------------|-------------------------------|
--9--9----9~------------7--|----------------------------7--|
---------------7--8h-9-----|--9/-7--5----------7--8h-9-----|
---------------------------|-----------7--7~---------------|


                                                         
-------------------------------|------------------------|
-------------------------------|------------------------|
-------------------------------|------------------------|
-------------------------------|------------------------|
--9/-7--5-------------5-----5--|--7~-----------7--7--7r-|
-----------7--7~---7-----7-----|------------------------|


                                                                          
------------------------|------------------------|-----------------------|
------------------------|------------------------|-----7b----------------|
------------------------|-----7------------------|-----7b----------------|
------------------------|--------9--9~-----9--7--|--9---------9--7-------|
----5--7--5--7--5----7/-|--9---------------------|--------------------7/-|
------------------------|------------------------|-----------------------|


                                                     
-------------------------|--------------------------|
-------------------------|--------------------------|
-------------------------|--------------------------|
-------------------------|--------------------------|
--9----7/-5--7--5--7--9/-|--7----7--5--7--5~-----7/-|
-------------------------|--------------------------|


                                                             
------------------10----------|-----------------------------|
----------------------12--12--|--12h-10---------------------|
-----7-----4/-11--------------|----------11--9--7b----------|
--------9---------------------|------------------------9/---|
--9---------------------------|-----------------------------|
------------------------------|-----------------------------|


                                                                                
------------------------|------------------------|-----------------------------|
--10--12----12~---------|--10--12----12~---------|-----------------------------|
------------------------|------------------------|--11b---11b---11r-------9----|
------------------------|------------------------|-----------------------------|
------------------------|------------------------|-----------------------------|
------------------------|------------------------|-----------------------------|


                                                             
-------------------------|----------------------------------|
-------------------------|--10--12----12~---12--12h-10------|
--9r---7-----------------|------------------------------11--|
----------9--9~-------9/-|----------------------------------|
-------------------------|----------------------------------|
-------------------------|----------------------------------|


                                                       
------------------------|-----------------------------|
--10--12----12~---------|-----------------------------|
------------------------|--11b---11b---11r-------9----|
------------------------|-----------------------------|
------------------------|-----------------------------|
------------------------|-----------------------------|


                                                                            
-------------------------|------------------------|------------------------|
-------------------------|------------------------|------------------------|
--9r---7-----------------|------------------------|------------------------|
----------9--9~-------9/-|------------------------|------------------------|
-------------------------|--7--9----9----9--9--9--|--7--9----9----9--9--9--|
-------------------------|--7--7----7----7--7--7--|--7--7----7----7--7--7--|


                                                                           
------------------------|------------------------|------------------------|
------------------------|------------------------|------------------------|
------------------------|------------------------|------------------------|
------------------------|------------------------|------------------------|
--7--7----7----7--7--7--|--9--9----9----9--7--7--|--7--9----9----9--9--9--|
--5--5----5----5--5--5--|--7--7----7----7--7--7--|--7--7----7----7--7--7--|


                                                                          
------------------------|------------------------|-----------------------|
------------------------|------------------------|-----------------------|
------------------------|------------------------|-----------------------|
------------------------|------------------------|-----------------------|
--7--9----9----9--9--9--|--7--7----7----7--7--7--|--9--9----9----9--9/---|
--7--7----7----7--7--7--|--5--5----5----5--5--5--|--7--7----7----7--7/---|


                                                                                
-----------0--------|------------------|-----------2--------|------------------|
-----------0--------|------------------|-----------2--------|------------------|
--------------------|------------------|--------------------|------------------|
--------------------|------------------|--------------------|------------------|
--------------------|------------------|--------------------|------------------|
--0-----------------|------------------|--2-----------------|------------------|


                                                                                
------------------------|------------------------|-----------------------------|
--10--12----12~---------|--10--12----12~---------|-----------------------------|
------------------------|------------------------|--11b---11b---11r-------9----|
------------------------|------------------------|-----------------------------|
------------------------|------------------------|-----------------------------|
------------------------|------------------------|-----------------------------|


                                                                  
-------------------------|-----------0--------|------------------|
-------------------------|-----------0--------|------------------|
--9r---7-----------------|--------------------|------------------|
----------9--9~-------9/-|--------------------|------------------|
-------------------------|--------------------|------------------|
-------------------------|--0-----------------|------------------|


                                                                 
-----------2--------|------------------|------------------------|
-----------2--------|------------------|--14--15----15~---------|
--------------------|------------------|------------------------|
--------------------|------------------|------------------------|
--------------------|------------------|------------------------|
--2-----------------|------------------|------------------------|


                                                                           
------------------------|------------------|------------------------------|
--14--15----15~---------|------------------|--17r---15--------------------|
------------------------|------------------|------------16--16--16~-------|
------------------------|------------------|------------------------------|
------------------------|------------------|------------------------------|
------------------------|------------------|------------------------------|


                                                                           
------------------------------|------------------------|------------------|
--14--15----15~---15h-14------|--14--15----15----------|------------------|
--------------------------16--|------------------------|------------------|
------------------------------|------------------------|------------------|
------------------------------|------------------------|------------------|
------------------------------|------------------------|------------------|


                                                        
------------------------------|------------------------|
--17r---15--------------------|------------------------|
------------16--16~-------16/-|------------------------|
------------------------------|------------------------|
------------------------------|--7--9----9----9--9--9--|
------------------------------|--7--7----7----7--7--7--|


                                                                           
------------------------|------------------------|------------------------|
------------------------|------------------------|------------------------|
------------------------|------------------------|------------------------|
------------------------|------------------------|------------------------|
--7--9----9----9--9--9--|--7--7----7----7--7--7--|--9--9----9----9--7--7--|
--7--7----7----7--7--7--|--5--5----5----5--5--5--|--7--7----7----7--7--7--|


                                                                           
------------------------|------------------------|------------------------|
------------------------|------------------------|------------------------|
------------------------|------------------------|------------------------|
------------------------|------------------------|------------------------|
--7--9----9----9--9--9--|--7--9----9----9--9--9--|--7--7----7----7--7--7--|
--7--7----7----7--7--7--|--7--7----7----7--7--7--|--5--5----5----5--5--5--|


                                                                
-----------------------|-----------0--------|------------------|
-----------------------|-----------0--------|------------------|
-----------------------|--------------------|------------------|
-----------------------|--------------------|------------------|
--9--9----9----9--9/---|--------------------|------------------|
--7--7----7----7--7/---|--0-----------------|------------------|


                                                                 
-----------2--------|------------------|------------------------|
-----------2--------|------------------|--10--12----12~---------|
--------------------|------------------|------------------------|
--------------------|------------------|------------------------|
--------------------|------------------|------------------------|
--2-----------------|------------------|------------------------|


                                                       
------------------------|-----------------------------|
--10--12----12~---------|-----------------------------|
------------------------|--11b---11b---11r-------9----|
------------------------|-----------------------------|
------------------------|-----------------------------|
------------------------|-----------------------------|


                                                                  
-------------------------|-----------0--------|------------------|
-------------------------|-----------0--------|------------------|
--9r---7-----------------|--------------------|------------------|
----------9--9~-------9/-|--------------------|------------------|
-------------------------|--------------------|------------------|
-------------------------|--0-----------------|------------------|


                                                                               
-----------2--------|------------------|-------------------|------------------|
-----------2--------|------------------|-------------------|------------------|
--------------------|------------------|-------------------|------------------|
--------------------|------------------|--4----------------|------------------|
--------------------|------------------|--2----------------|------------------|
--2-----------------|------------------|-------------------|------------------|


                                                            
------------------|------------------|---------------------|
------------------|------------------|--4------2-----------|
------------------|------------------|---------------------|
------------------|------------------|----------------4----|
------------------|------------------|---------------------|
------------------|------------------|---------------------|


                                                                  
---------------------|---------------------|---------------------|
---------------------|---------------------|---------------------|
---------------------|--4------2-----------|---------------------|
----2----------------|----------------4----|----2----------------|
-----------5----4----|---------------------|-----------5----4----|
---------------------|---------------------|---------------------|


                                                               
-------------------|----------------------|-------------------|
-------------------|----------------3h-2--|-------------------|
-------------------|----------2h-1--------|--4----------------|
-------------------|----------------------|-------------------|
--2----------------|----------------------|-------------------|
-------------------|----------------------|-------------------|


                                                               
------------------|---------------------|---------------------|
------------------|---------------------|---------------------|
------------------|--4------2-----------|---------------------|
------------------|----------------4----|----2----------------|
------------------|---------------------|-----------5----4----|
------------------|---------------------|---------------------|


                                                                
---------------------|---------------------|-------------------|
---------------------|---------------------|-------------------|
--4------2-----------|---------------------|-------------------|
----------------4----|----2----------------|-------------------|
---------------------|-----------5----4----|--2----------------|
---------------------|---------------------|-------------------|


                                                                  
--------------------------|-------------------|------------------|
----------12h10-----------|-------------------|------------------|
----------------11--9--7--|-------------------|------------------|
--------------------------|--9~---------------|------------------|
--------------------------|-------------------|------------------|
--------------------------|-------------------|------------------|


                                                                 
---------------------|---------------------|--------------------|
---------------------|---------------------|--------------------|
---------------------|---------------------|--------------------|
--4------2-----------|-----------7----6----|--4--------2--------|
--2------0------4----|----2------5----4----|--2--------0--------|
----------------2----|----0----------------|--------------------|


                                                     
--------------------||------------------------------|
--------------------||------------------------------|
--------------------||*-----------------------------|
--------------------||*-----------------------3-2~--|
--4--------2--------||---3h5-5--5~--5-3h5-3h5-------|
--2--------0--------||------------------------------|


                                                               
------------------------------||------------------------------|
------------------------------||------------------------------|
-----------------------------*||*-----------------------------|
-------------5r-------2h3-2--*||*-----------------------7/5---|
--3h5-5-5-5-----3-------------||---7h8-8--8~--8-7h8-7h8-------|
--------------------5---------||------------------------------|


                                                                             
------------------------------||---------------------|----------------------|
------------------------------||---------------------|----------------------|
-----------------------------*||---------------------|----------------------|
-------------7r--------------*||--7--------10--------|------------12--------|
--7h8-8-8-8-----7~----7h8-7---||--5--------8---------|--10--------10--------|
--------------------8---------||-----------8---------|--8---------10--------|


                                                            
-----------------------------|-----------------------------|
-----------------------------|-----------------------------|
-----------------------------|-----------------------------|
-----------------------7/5---|-------------7r--------------|
--7h8-8--8~--8-7h8-7h8-------|--7h8-8-8-8-----7~----7h8-7--|
-----------------------------|--------------------8--------|


                                                                  
---------------------|----------------------|--------------------|
---------------------|----------------------|--------------------|
---------------------|----------------------|--------------------|
--7--------10--------|------------12--------|--------------------|
--5--------8---------|--10--------10--------|--8--------7--------|
-----------8---------|--8---------10--------|--6--------5--------|


                                                   
--------------------|-----------------------------|
--------------------|-----------------------------|
--------------------|-----------------------------|
--------------------|-----------------------7/5---|
--3--------5--------|--7h8-8--8~--8-7h8-7h8-------|
--1--------3--------|-----------------------------|


                                                                        
-----------------------------|--------------------|--------------------|
-----------------------------|--------------------|--------------------|
-----------------------------|--------------------|--------------------|
-------------7r--------------|--------------------|--------------------|
--7h8-8-8-8-----7~----7h8-7--|--8--------7--------|--3--------5--------|
--------------------8--------|--6--------5--------|--1--------3--------|


                                                            
-----------------------------|-----------------------------|
-----------------------------|--------10------------10b----|
-----------------------------|--------10------------10b----|
---------------------3-------|--------10-------------------|
--3-5--------3h5-3h5---5-3---|--3-5----------------------0-|
-----------5---------------5-|--------------x-x-x-x--------|


                                                            
-----------------------------|-----------------------------|
-----------------------------|--------10------------10b----|
-----------------------------|--------10------------10b----|
---------------------3-------|--------10-------------------|
--3-5--------3h5-3h5---5-3---|--3-5----------------------0-|
-----------5---------------5-|--------------x-x-x-x--------|


                                                            
-----------------------------|-----------------------------|
-----------------------------|--------10------------10b----|
-----------------------------|--------10------------10b----|
---------------------3-------|--------10-------------------|
--3-5--------3h5-3h5---5-3---|--3-5----------------------0-|
-----------5---------------5-|--------------x-x-x-x--------|


                                                            
-----------------------------|-----------------------------|
-----------------------------|--------10------------10b----|
-----------------------------|--------10------------10b----|
---------------------3-------|--------10-------------------|
--3-5--------3h5-3h5---5-3---|--3-5----------------------0-|
-----------5---------------5-|--------------x-x-x-x--------|


                                                            
-----------------------------|-----------------------------|
-----------------------------|--------10------------10b----|
-----------------------------|--------10------------10b----|
---------------------3-------|--------10-------------------|
--3-5--------3h5-3h5---5-3---|--3-5----------------------0-|
-----------5---------------5-|--------------x-x-x-x--------|


                                                              
-----------------------------|-------------------------------|
-----------------------------|--------10------------10-10----|
-----------------------------|--------10------------10-10--0-|
---------------------3-------|--------10------------10-10----|
--3-5--------3h5-3h5---5-3---|--3-5--------------------------|
-----------5---------------5-|--------------x-x-x-x----------|


                                                                              
-------------------------|-------------------------|-------------------------|
-------------------------|-------------------------|-------------------------|
-------------------------|-------------------------|-------------------------|
-------------------------|-------------------------|-------------------------|
--5-5~--3~--3------------|--5~---3~--3-------------|--5~-5~-7---7-7~---5~-7--|
--------------3~---1~--1-|-------------3-3~--1~--0-|-------------------------|


                                                                 
------------------------------------|---------------------------|
------------------------------------|---------------------------|
-----9-9-9-9-9-9-9-9-9-9-9--------7-|------------------------7--|
------------------------------------|--9--9----9~---------------|
--7--7-7-7-7-7-7-7-7-7-7-7--7h8h9---|---------------7--8h-9-----|
------------------------------------|---------------------------|


                                                            
---------------------------|-------------------------------|
---------------------------|-------------------------------|
---------------------------|-------------------------------|
--9--9----9~------------7--|----------------------------7--|
---------------7--8h-9-----|--9/-7--5----------7--8h-9-----|
---------------------------|-----------7--7~---------------|


                                                            
-------------------------------|---------------------------|
-------------------------------|---------------------------|
----------------------------7--|------------------------7--|
-------------------------------|--9--9----9~---------------|
--9/-7--5----------7--8h-9-----|---------------7--8h-9-----|
-----------7--7~---------------|---------------------------|


                                                            
---------------------------|-------------------------------|
---------------------------|-------------------------------|
---------------------------|-------------------------------|
--9--9----9~------------7--|----------------------------7--|
---------------7--8h-9-----|--9/-7--5----------7--8h-9-----|
---------------------------|-----------7--7~---------------|


                                                                                
-----------------------------|------------------------|------------------------|
-----------------------------|------------------------|------------------------|
-----------------------------|------------------------|------------------------|
-----------------------------|------------------------|------------------------|
--9/-7--5-----7/-9--7--------|--7--9----9----9--9--9--|--7--9----9----9--9--9--|
-----------7--7----------10--|--7--7----7----7--7--7--|--7--7----7----7--7--7--|


                                                                           
------------------------|------------------------|------------------------|
------------------------|------------------------|------------------------|
------------------------|------------------------|------------------------|
------------------------|------------------------|------------------------|
--7--7----7----7--7--7--|--9--9----9----9--7--7--|--7--9----9----9--9--9--|
--5--5----5----5--5--5--|--7--7----7----7--7--7--|--7--7----7----7--7--7--|


                                                                          
------------------------|------------------------|-----------------------|
------------------------|------------------------|-----------------------|
------------------------|------------------------|-----------------------|
------------------------|------------------------|-----------------------|
--7--9----9----9--9--9--|--7--7----7----7--7--7--|--9--9----9----9--9/---|
--7--7----7----7--7--7--|--5--5----5----5--5--5--|--7--7----7----7--7/---|


                                                                                
-----------0--------|------------------|-----------2--------|------------------|
-----------0--------|------------------|-----------2--------|------------------|
--------------------|------------------|--------------------|------------------|
--------------------|------------------|--------------------|------------------|
--------------------|------------------|--------------------|------------------|
--0-----------------|------------------|--2-----------------|------------------|


                                                                                
------------------------|------------------------|-----------------------------|
--10--12----12~---------|--10--12----12~---------|-----------------------------|
------------------------|----------





Comments


Popular Metallica tabs & chords
Dont Tread On Me Bass Tabs
Bad Seed Drum Tabs
For Whom The Bells Tolls 1 Tabs
Harvester Of Sorrow 2 Tabs
Master Of Puppets 5 Tabs
Sanitarium 1 Tabs
St. Anger 1 Tabs
Unforgiven Ii Intro Tabs
Wasting My Hate Tabs
Astronomy Ukulele


Song lyrics



↑ Back to top | Tablatures and chords are parodies/interpretations of the original songs. You may use it for private study, scholarship, research or language learning purposes only
© 2014 AZChords.com Contact us | Privacy policy | DMCA | Add/correct tabs | Request tabs | Top 50 tabs