>
 >
Reload Solos 1 Thru

Reload Solos 1 Thru Guitar Tabs

Metallica - Reload Solos 1 Thru chords, tabs, tablatures, lyrics

Guitar lessons | Add/correct | Request | Top 50 tabs Artists:  A B C D E F G H I J K L M N O P Q R S T U V W X Y Z 0-9

Reload Solos 1 Thru Guitar Tabs – Metallica

CD, Sheet music, Poster

Do you like Reload Solos 1 Thru? Share with your friends now
Tabs
Re-Load album solos
Metallica


Contents:
1.)”Fuel” solo
2.)”The Memory Remains” solo and bridge
3.)”Devil’s Dance” solo
4.)”Unforgiven 2” solo
5.)”Better Than You” solo and outro
6.)”Slither” solo 

p=pulloff					
h=hammer on
/\=slide up/down			
x-muffled strings	 
v=vibrato		             	
b=bend
r=release				    
()=harmonics            
t=trill			       	
++=tap
          ^        ^          =whammy bar
e-----------------------------

“Fuel”
Tuning-all strings down a half-step

solo
e-------------------------------12----------12-----------
B---15b17r15--15b17r15vvvvvv-------15b17r15----15b17r15vv
G--------------------------------------------------------
D--------------------------------------------------------
A--------------------------------------------------------
E--------------------------------------------------------

e------15b17r15--15p14-15p14-----------------------------
B---12-----------------------15--------------------------
G-------------------------------14---12\11---------------
D------------------------------------------12vvv---12--12
A--------------------------------------------------------
E--------------------------------------------------------

e--------------------------------------------------------
B--------------------------15--15p14----14-------14-15---
G---------12----12---14/16-----------16----14h16---------
D---12/14----14------------------------------------------
A--------------------------------------------------------
E--------------------------------------------------------

e------14---15----17---17b19r17----17---15---------------
B---17-------------------------------------17---17vvvv-\-
G--------------------------------------------------------
D--------------------------------------------------------
A--------------------------------------------------------
E--------------------------------------------------------

e---7/9-----7---7/9-----7\-------------------------------
B--------------------------------------------------------
G---7/9-----7---7/9-----7\-2b4r2--2b4r2--2b4r2--2b4r2p0--
D--------------------------------------------------------
A--------------------------------------------------------
E--------------------------------------------------------

e------------------7/9-----7---7/9---7---9---12vvvvvvv-/-
B--------------------------------------------------------
G------------------7/9-----7---7/9---7---9---12vvvvvvv-/-
D---2--0--2vvvv-/----------------------------------------
A--------------------------------------------------------
E--------------------------------------------------------

e---/16vvv-16vvvvv--16-\-----------0-----------0---------
B------------------------------------3---3b5r3---3---3p0-
G---/16vvv-16vvvvv--16-\----2b4r2------------------------
D--------------------------------------------------------
A--------------------------------------------------------
E--------------------------------------------------------

e----------0-----------0------------0-----------0--------
B------------3---3b5r3---3p0----------3---3b5r3---3p0----
G---2b4r2--------------------2b4r2-----------------------
D--------------------------------------------------------
A--------------------------------------------------------
E--------------------------------------------------------

e---3--0-----0----0--0------------|
B---------3-------3--3------------|
G---------------------------------|
D---------------------------------|
A---------------------------------|
E---------------------------------|

“The Memory Remains”
Tuning-all strings down a half-step

bridge
e--------------------------------------------------------
B-------7h8--7vvvv---8-----------/10--10--8h7------------
G---/9---------------7vvvvv-\-----------------9--9vvvv-\-
D--------------------------------------------------------
A--------------------------------------------------------
E--------------------------------------------------------

e--------------------------------------------------------
B------7h8--7vvvvv-8--7---8vvvvvvv-\---/10--10--10b12r10-
G---/9---------------------------------------------------
D--------------------------------------------------------
A--------------------------------------------------------
E--------------------------------------------------------

e--------------------------------------------------------
B---8vv--8vvv-\----------7h8---7vvvv--8---7--------------
G-----------------/9--------------------------7vvvvvv-\--
D-----------------/5-----7/9---7vvvv--9---7---5vvvvvv-\--
A--------------------------------------------------------
E--------------------------------------------------------

e--------------------------------------------------------
B---/10---10---8p7---------------------7h8---7vv--8--7---
G---/7----7----5p4--9---9vvvv-\--/5----------------------
D-------------------5---5vvvv-\--/5----7/9---7vv--9--7---
A--------------------------------------------------------
E--------------------------------------------------------

e----------------------------------------------|
B---8vvvvvv-\---/10---10----10b12r10---8vvv----|
G---------------/7----7-----7-b9-r7----9vvv----|
D---9vvvvvv-\----------------------------------|
A----------------------------------------------|
E----------------------------------------------|

solo
e--------------------------------------------------------
B---------------12--14--14b15r14p12--14b15-\-------------
G---12vv--------12--14--14b16r14p12--14b16-\---2--2b4r2--
D--------14vvv-------------------------------------------
A--------------------------------------------------------
E--------------------------------------------------------

e--------------------------------------------------------
B---------------------------------14b15r14---12---12--14-
G---2b3b5--0-----------0----------14b15r14---12---12--14-
D-------------2--2vv--------0------------------14--------
A--------------------------------------------------------
E--------------------------------------------------------

e----------------------------------12---------12---------
B---14b15r14---12--12-----------12----15b17------15--12--
G---14b15r14---12--12-----14b16--------------------------
D----------------14----14--------------------------------
A--------------------------------------------------------
E--------------------------------------------------------

e-----------------13-\-8-\------15--------15-\----|
B-----------------13-\-8-\------15--------15-\----|
G---14b16r14p12-------------2/--------------------|
D-------------------------------------------------|
A-------------------------------------------------|
E-------------------------------------------------|

“Devil’s Dance”
Tuning-all strings down 1 whole step

solo									^^^^^^^^^^^^^^
e--------------------------------------------------------
B--------------------------------------------------------
G---24t12t24t12t24t12t24t12t24t12t24t12t24t12t24t12t24t12
D--------------------------------------------------------
A--------------------------------------------------------
E--------------------------------------------------------
    ^^^^^^^^^^^^^^^^^^^^^^^^^^^^^^^^^^^^^         ^^^^^^
e--------------------------------------------------------
B------------------------------------------------12-\----
G---t24t12t24t12t24t12t24t12t24t12t24vvvv--------12-\----
D-----------------------------------------5-/------------
A-----------------------------------------5-/------------
E-----------------------------------------3-/------------
      						 ^^^^^^
e---15vv--15vvv----------------------------15vv--15vvv---
B---17vv--17vvv---17--17b18r17----12-------17vv--17vvv---
G---------------------------------12---------------------
D--------------------------------------------------------
A--------------------------------------------------------
E--------------------------------------------------------
			     ^^^^          ^^^
e---15h17--15vvvv--------15vvv--12----15v--17--17--15----
B----------17vvvv--------17vvv--12----17v--17--17--15----
G-----------------12------------12-----------------------
D-----------------12-------------------------------------
A--------------------------------------------------------
E--------------------------------------------------------

e--------------------------------------------------------
B---14b15r14-b15r14-b15r14-------------------------------
G---14b15r14-b15r14-b15r14----12--14p12------------------
D---------------------------14---------14--12h14vvv-14vv-
A--------------------------------------------------------
E--------------------------------------------------------

e--------------------------------------------------------
B---12--b13--15-----------------------12----12-----------
G---12--b13-----14b15-b15-b15-b15-r14----14----14b15-b15-
D--------------------------------------------------------
A--------------------------------------------------------
E--------------------------------------------------------

e--------------------------------------------------------
B---------------12----12---------------------------------
G---b15-b15-r14----14-----14b15-b15-b15-b15-r14-14-14-14-
D--------------------------------------------------------
A--------------------------------------------------------
E--------------------------------------------------------
									 ^  ^  ^  ^
e--------------------------------------------------------
B----------------------------------14--b15----14--b15----
G---14p12--------------------12----14--b15---------------
D------------14-12-14vv-14-------------------------------
A--------------------------------------------------------
E--------------------------------------------------------
  ^  ^  ^  ^  ^  ^    ^  ^  ^  ^   ^   ^   ^   ^   ^   ^
e--------------------------------------------------------
B---/16/17/18/19/20-/-21/22----23-23--23--23--23--23--23-
G-------------------------------------21--21--21--21--21-
D------+17+18/19/20-/-21/22/23---------------------------
A--------------------------------------------------------
E--------------------------------------------------------
    ^   ^   ^   ^   ^   ^   ^    ^    ^    ^
e-------------------21--20--20---19---19---19---17-------
B---23--23--22--22--21--20--20---19---19---19---17---12\-
G----------------------------------------------------12\-
D--------------------------------------------------------
A--------------------------------------------------------
E--------------------------------------------------------

e--------------------------------------------------------
B--------------------------------------------------------
G--------------------------------------------------------
D---8----/14-\5--5-------/14-\8--7b8vvvr7-7p5---5-7-5----
A---------------------------------------------7-------7--
E---6----/12-\7--7-------/12-\6--------------------------

e--------------------12-------12-------------------------
B-----------------12----15b17----15-12----------14-------
G-----------14b16----------------------14-12-------12vv--
D--------------------------------------------14----------
A---5-7vv-/----------------------------------------------
E--------------------------------------------------------

e--------------------------------------------------------
B----------------------------h13p12p0h14p13p1h15p14p2h16-
G---14p12-14p12-14p12-14p12------------------------------
D--------------------------------------------------------
A--------------------------------------------------------
E--------------------------------------------------------

e--------------------------------------------------------
B--p15p2h17p16p2h17p16p3h18p17p3h19p17p4h19p17p4h20p18p5-
G--------------------------------------------------------
D--------------------------------------------------------
A--------------------------------------------------------
E--------------------------------------------------------

e--------------------------------------------------|
B---h21p19p6h22p20p7h22p20p8h22p20h22p20h22--------|
G-------------------------------------------12\----|
D--------------------------------------------------|
A--------------------------------------------------|
E--------------------------------------------------|

“Unforgiven 2”
Tuning-all strings down a half-step

solo
e--------------------------------------------------------
B------------------5--7b8r7------------------------------
G------------------5--7b8r7---5\4-5-4h5p4---4------------
D---/7---7--7vv-7-------------------------7----5vvv-5--5-
A--------------------------------------------------------
E--------------------------------------------------------

e--------------------------------------------------------
B----------------------------------20-------20-----------
G-------17-19b21r19--17----17--19b20-b20r19----19b21r19--
D---/19-----------------19-------------------------------
A--------------------------------------------------------
E--------------------------------------------------------

e--------------------------------------------------------
B---20-20----20-20------------------20b22-b22-b22-b22r20-
G---19b21-b21--r19---19b20r19-17--17---------------------
D-------------------------------19-----------------------
A--------------------------------------------------------
E--------------------------------------------------------

e-------------17-------------------------17--------------
B---20v-\-/17----17--20b22r21b23vv-\-/17----17--20b22r20-
G--------------------------------------------------------
D--------------------------------------------------------
A--------------------------------------------------------
E--------------------------------------------------------

e---------17----------17---------------------------------
B---\-/17----17-20b21----20-17---------------------19----
G------------------------------29b21r19p17-19p17---19-17-
D------------------------------------------------19------
A--------------------------------------------------------
E--------------------------------------------------------

e--------------------------------------------------------
B-----19------19------19---------------------------------
G-----19--17--19--17--19--17--17-19-19b21-19p17--17--19--
D---19------19------19------19-----------------19--------
A--------------------------------------------------------
E--------------------------------------------------------

e------------------------------------------------------|
B----------------19--17\-------------------------------|
G---b21r19p17----19--17\----5--------------------------|
D-------------19---------/7---7--5--5------------------|
A---------------------------------7---7-6-5-3---5--3---|
E---------------------------------------------5------5-|

“Better Than You”
Tuning-all strings down a half-step

solo
e--------------------------------------------------------
B---12b13-------------------------12--13--14-----12b13---
G---12b13-------------------------12--13--14-----12b13---
D----------14vv-12-14vvv-14-14vv-------------------------
A--------------------------------------------------------
E--------------------------------------------------------

e--------------------------------------------------------
B-------------------------------------------------12b13--
G------------------------------14b16r14----12--14-12b13--
D---14vvv-12-14vvvv-14--14--12---------------------------
A--------------------------------------------------------
E--------------------------------------------------------

e--------------------------------------------------------
B-------------------------12--12-14--12b13---------------
G-------------------------12--12-14--12b13---------------
D---14vv-12-14vvv-14-14-1---14------------14vv-12-14vvv--
A--------------------------------------------------------
E--------------------------------------------------------

e--------------------------------------------------------
B-----------12-----------12-12---12---12---12---14-14----
G-----------12----12-----12-12---12---12---12---14-14----
D---14-14vv----------14----------------------------------
A--------------14----------------------------------------
E--------------------------------------------------------

e--------------------------------------------------------
B---14---14---12--14b15r14---12----12-14--14b15r14-12----
G---14---14---12--14b15r14---12----12-14--14b15r14-12----
D-------------------------------14--------------------14-
A--------------------------------------------------------
E--------------------------------------------------------

e--------------------------------------------------------
B---------------12-12---12---12---12---14b15r14-12-14----
G---12----------12-12---12---12---12---14b15r14-12-14-12-
D------14vvv---------------------------------------------
A--------------------------------------------------------
E--------------------------------------------------------

e--------------------------------------------------------
B--------------------------------------------------------
G--------14p12--12-14p12-14p12--12-14p12-14p12--12-14p12-
D---14--------14--------------14--------------14---------
A-----14-------------------------------------------------
E--------------------------------------------------------

e---------------------------------------12---------------
B----------------------------------15vvv--15-12----------
G-----12-14p12-14p12--12-14-14p12------------12-14b15r14-
D---14--------------14-----------14----------------------
A--------------------------------------------------------
E--------------------------------------------------------

e--------------------------------------------------------
B--------------------------------------------------------
G---14vvvv--14b15r14--12----12--14--14b16--14-12--12-----
D------------------------14---------------------14--14vv-
A--------------------------------------------------------
E--------------------------------------------------------

e--------------------------------------------------------
B---12--------12--------12--------12--------------12-14--
G---12--------12--------12--------12--------------12-14--
D-----14p12-----14p12-----14p12-14---14p12--12-14--------
A----------14--------14-------------------14-------------
E--------------------------------------------------------

e-----------------------------------------------------|
B---14b15r14--12----------17b19r17-17b18--r17-15vvvv--|
G---14b15r14--12----12/14-----------------------------|
D----------------14-----------------------------------|
A-----------------------------------------------------|
E-----------------------------------------------------|

outro
e--------------------------------------------------------
B-------------------12b13------------------------12b13---
G---12--14--12--14--12b13------------14--12--14--12b13---
D--------------------------14--14vvv---------------------
A--------------------------------------------------------
E--------------------------------------------------------

e--------------------------------------------------------
B---------------------------12b13------------------------
G---------------------------12b13------------------------
D---14--14vvv-14--14p12-----------14--14vvv-14--14p12----
A-----------------------14----------------------------14-
E--------------------------------------------------------

e--------------------------------------------------------
B----------------------------------------------14-12-14--
G---12b13----------14--12--14--12b13-----------14-12-14--
D---------14--14vv-------------------14--14vvv-----------
A--------------------------------------------------------
E--------------------------------------------------------

e--------------------------------------------------------
B------------------------------12--b13-------------------
G---12b13----------------------12--b13--12\--------------
D---------14--14\------12--14--------------------12--14--
A-----------------/14-----------------------/14----------
E--------------------------------------------------------

e--------------------------------------------------------
B---12--b13---14---14---14---14--14b15-14b15-14b15-14b15-
G---12--b13---14---14---14---14--14b15-14b15-14b15-14b15-
D--------------------------------------------------------
A--------------------------------------------------------
E--------------------------------------------------------

e--------------------------------------------------------
B---r14---12--------14b15---14b15r14---------------------
G---r14---12----12--14b15---14b15r14---12----12----------
D------------14---------------------------14----14vvvv---
A--------------------------------------------------------
E--------------------------------------------------------

e--------------------------------------------------------
B--------------------------------------------------------
G---------12--14--14b16----------12--14--14b16-----------
D---12h14------------------12h14------------------12h14--
A--------------------------------------------------------
E--------------------------------------------------------

e--------------------------------------------------------
B-------------------------------14--14b15----------------
G---12--14--14b16r14--12----12--14--14b15----------------
D------------------------14-----------------11vvvvvvvv---
A--------------------------------------------------------
E--------------------------------------------------------

e--------------------------------------------------------
B--------15------15--15----------15---------15----15-----
G---/16-----16vv--------16vvv-16----16vv-16----16----16--
D--------------------------------------------------------
A--------------------------------------------------------
E--------------------------------------------------------

e--------------------------------------------------------
B---15---------15----------15---------15----15----15-----
G------16vv-16----16vvv-16----16vv-16----16----16----16--
D--------------------------------------------------------
A--------------------------------------------------------
E--------------------------------------------------------

e--------------------------------------------------------
B---15--17b20-b20-b20--b19vv-17p15---15------------------
G---------------------------------16---16-14-12-14-14b16-
D--------------------------------------------------------
A--------------------------------------------------------
E--------------------------------------------------------

e------------------------19--17--------------------------
B------------15b17\5-/17--------20--19--20-19h20p19--17--
G---14p12--12--------------------------------------------
D--------14----------------------------------------------
A--------------------------------------------------------
E--------------------------------------------------------

e--------------------------------------------------------
B---19--17--15--14---------------------------------------
G------------------16--14\12--14--12b14-12vv-12h14p12\11-
D--------------------------------------------------------
A--------------------------------------------------------
E--------------------------------------------------------

e--------------------------------------------------------
B--------------------------------------------------------
G---12-11h12p11\9-\7-------------------------------------
D--------------------9--7-\5-/7---7/9----b11--r9vvvvvv---
A--------------------------------------------------------
E--------------------------------------------------------

e-------------------------------|
B-------------------------------|
G---12--13--14---12-------------|
D-------------------14vv-\------|
A-------------------------------|
E-------------------------------|

“Slither”
Tuning-all strings down a half-step

solo
e--------------------------------------------------------
B---7--5-------5b6-------8---7--5------7b8--5------------
G---7--5-------5b7-------8---7--5---5--7b9--5------------
D--------7vvvv--------------------7-----------7vvvv------
A--------------------------------------------------------
E------------------------------------------------------0-

e--------------------------------------------------------
B--------------------------------------------------------
G-------12--14b16r14p12----------------------------------
D---/14-----------------14\7--7--7--7--7--7--7--7--7---7-
A--------------------------0--0--0--0--0--0--0--0--0---0-
E--------------------------------------------------------

e--------------------------------------------------------
B--------------------------------------------------------
G----------------------------------5--5-----7--7p5-----5-
D---7--7--7--7--7--7---7--7----7p5------7p5--------7p5---
A---0--0--0--0--0--0---0--0--0---------------------------
E--------------------------------------------------------

e--------------------------------------------------------
B--------------------5--------7b8r7--5-------5----7b8r7--
G---5-----7--7p5-------5---5--7b9r7--5-------5----7b9r7--
D-----7p5--------7p5-----7-------------7vv---------------
A------------------------------------------0----0--------
E--------------------------------------------------------

e--------------------------------------------------------
B-----5-----------5b6----7p5-----------------------------
G-----5-----7b9---5b6----7p5---5-------------------------
D---------------------7------7---7--5---5--7p5-----------
A---0----0------0---------------------7--------7--6--5---
E--------------------------------------------------------

e-------------------------------12-----------------12----
B-------------------------------15b17-15b17-\------15b17-
G--------------------------------------------------------
D--------------------------------------------------------
A---3--5--3b4r3-----3b4----------------------------------
E----------------5--------0--------------------0---------

e---\----12----12---------------------12-----12----------
B---\----15b17----15b17-15b17vv-15b17----12--15b17----12-
G--------------------------------------------------------
D--------------------------------------------------------
A--------------------------------------------------------
E--------------------------------------------------------

e--------12-----12--------12-12-----12-15b17-12--15b17---
B---15b17--15b17--12-15b17-----15b17-----------12--------
G--------------------------------------------------------
D--------------------------------------------------------
A--------------------------------------------------------
E--------------------------------------------------------

e---15b17-12-15b17-12--15b17--12-15-12-------------------
B--------------------12-----12---------------------------
G------------------------------------------12--12--12----
D--------------------------------------14--12--12--12----
A--------------------------------------------------------
E--------------------------------------------------------

e--------------------------------------------------------
B-------------------12--12-------x--x---x---15--15-15-15-
G------12-----------12--12-------x--x---x---12--12-12-12-
D---14----12--14p12--------14p12-------------------------
A--------------------------------------------------------
E--------------------------------------------------------

e---15--------------15-----------------------------------
B------15-15--15----15-15--14b15----------12vv---14--12--
G----------------------12--14b16--12------12vv---14--12--
D------------------------------------14vv----------------
A--------------------------------------------------------
E--------------------------------------------------------

e----------------------------------------------|
B----------------------------------------------|
G----------------------------------------------|
D---14-12--12-14-12----------------------------|
A--------14--------14-13-12-10-(12)---12b14----|
E----------------------------------------------|





Comments


Popular Metallica tabs & chords
And Justice For All 3 Bass Tabs
Die Die My Darling Bass Tabs
Holier Than Thou Chords
Eye Of The Beholder Drum Tabs
2 X 4 1 Tabs
Astronomy 4 Tabs
Bad Seed Tabs
Buried Alive Tabs
Live Shit Riffs 1 Tabs
Prince Charming Tabs


Song lyrics



↑ Back to top | Tablatures and chords are parodies/interpretations of the original songs. You may use it for private study, scholarship, research or language learning purposes only
© 2014 AZChords.com Contact us | Privacy policy | DMCA | Add/correct tabs | Request tabs | Top 50 tabs