>
 >
Poor Twisted Me 1

Poor Twisted Me 1 Guitar Tabs

Metallica - Poor Twisted Me 1 chords, tabs, tablatures, lyrics

Guitar lessons | Add/correct | Request | Top 50 tabs Artists:  A B C D E F G H I J K L M N O P Q R S T U V W X Y Z 0-9

Poor Twisted Me 1 Guitar Tabs – Metallica

CD, Sheet music, Poster

Do you like Poor Twisted Me 1? Share with your friends now
TabsTabs v2
Poor Twisted Me by Metallica


Tune Guitars down 1/2 Step 

Intro: With echo and lots of extra muffled notes (Rythm is wrong so listen to the song)
|--------------7---------------------^-----------|------x-x-x---------------------|
|-----------------5------------------8-----------|-------------5------------------|
|-----------------5------------------7-----------|-------------5------------------|
|------7------------------7---Bend-7-up-then-down|----7-------------7-------------|
|------------------------------------------------|--------------------------------|
|---/5-----------------5-------------------------|--5------------5----------------|
   sl.

|--------------|---------------------------------------|---------------------------|
|--5-----------|--------------------------------5------|---------------------------|
|--5--p--------|------------7----5--------------5--p---|------------7---5----------|
|----7-5-------|----7----7---------------7---7----7-5--|-----7---7-----------------|
|---------7--5-|--------------------------------------7|---------------------------|
|--------------|--5-------------------5----------------|---5-----------------------|

|----------------------------------|
|-----------5-5-5--7-7-7--5-5-5----|
|-----------5-5-5--7-7-7--5-5-5----|
|------7---------------------------|
|----------------------------------|
|---5------------------------------|

Guitar1:Still with echo
|----------------------------------------------------|-----------------------------|
|---------------------5-------------------------h-p--|----------------------5------|
|------------5-----7--5-------------5-----7----5-7-5-|------------5-----7---5------|
|----7----7-----7-----------7----7-----7-----7-------|----7----7-----7-------------|
|----------------------------------------------------|-----------------------------|
|--5---------------------5---------------------------|--5--------------------------|

|---------------------------------|
|----------5-5-5--7-7-7--7-7--5-5-|
|----------5-5-5--7-7-7--7-7--5-5-|
|-----7---------------------------|
|---------------------------------|
|--5------------------------------|

Guitar2:
|---------------------------------|--------------------------------|
|.--------------------------------|-------------------------------.|
|-------------------------------5-|--------------------------------|
|---7--7--7--7--7--7--7--7--7-----|---7--7--7--7--7--7--7--7--7--5-|
|.--7--7--7--7--7--7--7--7--7-----|---7--7--7--7--7--7--7--7--7---.|
|---5--5--5--5--5--5--5--5--5-----|---5--5--5--5--5--5--5--5--5----|


/=slide
h-hammer on
p=pull off





Comments


Popular Metallica tabs & chords
Linus And Lucy 1 Bass Tabs
Poor Twisted Me 2 Bass Tabs
Nothing Else Matters Chords
Bad Seed Drum Tabs
Astronomy 3 Tabs
Better Than You 1 Tabs
Carpe Diem Baby 2 Tabs
Loverman 1 Tabs
Mexico City Riff 1 Tabs
Whiskey In The Jar 1 Tabs


Song lyrics



↑ Back to top | Tablatures and chords are parodies/interpretations of the original songs. You may use it for private study, scholarship, research or language learning purposes only
© 2014 AZChords.com Contact us | Privacy policy | DMCA | Add/correct tabs | Request tabs | Top 50 tabs