>
 >
Phantom Lord

Phantom Lord Guitar Tabs

Metallica - Phantom Lord chords, tabs, tablatures, lyrics

Guitar lessons | Add/correct | Request | Top 50 tabs Artists:  A B C D E F G H I J K L M N O P Q R S T U V W X Y Z 0-9

Phantom Lord Guitar Tabs – Metallica

CD, Sheet music, Poster

Do you like Phantom Lord? Share with your friends now
TabsTabs v2Tabs v3
                                  By Metallica


Intro after fading in Bass.                                  use wammie bar at end
||-----------------------------------------------------------------------------
||-----------------------------------------------------------------------------
||-2-----2--2-----2--2--2-----2--2-----2-----4-----4--4-----4--4--4-----4--4---
||-2-----2--2-----2--2--2-----2--2-----2-----4-----4--4-----4--4--4-----4--4---
||-0-----0--0-----0--0--0-----0--0-----0-----2-----2--2-----2--2--2-----2--2---
||-----------------------------------------------------------------------------
                                                                               

 Main Riff. This is played all throughout the song, including right after the
 intro and between verses.
||-------------------------|---------------------||
||-------------------------|---------------------||
||*------------------------|--------------------*||
||*--7--9--9--9--9--12--14-|--7--9--9--9--9--7--*||
||---5--7--7--7--7--10--12-|--5--7--7--7--7--5---||
||-------------------------|---------------------||

verse:                  play main riff twice after verse riff.
|---------------------|
|---------------------|
|*--2-----5--5/4--2---|
|*--2-----5--5/4--2---|
|---0-----3--3/2--0---|
|---------------------|

Chorus:          (x3)               (x1)
||-----------------|------------------||
||-----------------|------------------||
||*---------------*|-----------------*||
||*---------------*|-----------------*||
||---7--5--7--4-5--|---7--5--4--5--4--||
||---5--3--5--2-3--|---5--3--2--3--2--||

background for solo:
                (x4)               (x4)
||-----------------|------------------||
||-----------------|------------------||
||*----------------|-----------------*||
||*-5--4--5--------|-----------------*||
||--3--2--3--4--5--|-2--4--5--7--5----||
||-----------2--3--|-0--2--3--5--3----||

guitar just before clean part:
||-------------------------||
||-------------------------||
||-------------------------||
||-9~~~~7~~~~5~~~~4~~~~----||
||-------------------------||
||---------------------3-2-||
                      \p.m./


This is the non-distorted part in the middle:
||-------------------------||
||----------------------0--||
||*--0-----0-----0--------*||
||*---2-----2-----2----2--*||
||--2-----2-----2-----2----||
||-0-----3-----2-----1-----||

   This part is played after the non-distorted part in the middle
||--------------------------------------||
||--------------------------------------||
||*-0-0-0-0--0-0-0-0--0-0-0-0--0-0-0-0-*||
||*-2-2-2-2--2-2-2-2--2-2-2-2--2-2-2-2-*||
||--2-2-2-2--2-2-2-2--2-2-2-2--2-2-2-2--||
||--0-0-0-0--3-3-3-3--2-2-2-2--1-1-1-1--||
    \__Extremely_Heavy_Palm_Muting!__/

  This is played after repeating the above line the 4th time.
||------------------||
||------------------||
||------------------||
||---2--2--2--2--2--||
||---2--2--2--2--2--||
||---0--0--0--0--0--||

then
||--------------------|-------------------------||
||--------------------|-------------------------||
||*--2-----5--5/4--2--|------------------------*||
||*--2-----5--5/4--2--|------------------------*||
||---0-----3--3/2--0--|-------------------------||
||--------------------|-0-0-0-0-0-0-0-0-0-0-0-0-||
                       \_______palm mute_______/





Comments


Popular Metallica tabs & chords
2x4 Bass Tabs
Battery 4 Bass Tabs
Eye Of The Beholder 2 Bass Tabs
Minus Human 1 Bass Tabs
Commando Tabs
Cure 1 Tabs
Die Die Die My Darling Tabs
Master Of Puppets Slow Tabs
Broken Beat And Scarred Ukulele
Enter Sandman Ukulele


Song lyrics



↑ Back to top | Tablatures and chords are parodies/interpretations of the original songs. You may use it for private study, scholarship, research or language learning purposes only
© 2014 AZChords.com Contact us | Privacy policy | DMCA | Add/correct tabs | Request tabs | Top 50 tabs