>
 >
Outlaw Tom

Outlaw Tom Guitar Tabs

Metallica - Outlaw Tom chords, tabs, tablatures, lyrics

Guitar lessons | Add/correct | Request | Top 50 tabs Artists:  A B C D E F G H I J K L M N O P Q R S T U V W X Y Z 0-9

Outlaw Tom Guitar Tabs – Metallica

CD, Sheet music, Poster

Do you like Outlaw Tom? Share with your friends now
Tabs
The Outlaw Torn
written by Hetfield & Ulrich
as performed on Load



tune all guitars down 1/2 step
1)
intro (fade in)
Db--x-3-3--3-3
Ab--x-2-2--2-2
Eb--x-0-0--0-0
  3rdfret wah


2)                       ^V    ^V    ^V
Gb--------------------------------------------
Db-----------------------4~~---4~~---4~~------
Ab--5h7-7-5h7-5h7-5h7-7--5--5--5--5--5--5--5-7
Eb--0-0-0-0-0-0-0-0-0-0--------------------0-0 repeat


3a)                      3b)
Db--4~~-7/9               --4~~7-4
Ab------5/7               -----5-2
Eb---------               --------
...for you (1st time) 


4)
Db--7-4---2-4---4-2------
Ab--5-2---0-2---2-0---5-7
Eb--------------------3-5
"You make me smash..." etc


5)
Db--7---9--7---------------------
Ab--5---7--5-7-5-7--5-7--7-5--5-4
Eb--0---0----5-3-5--3-5--5-3--3-2
"Hear Me.  If I close my mind..."


6a)      ^V            ^V  ^V^
Gb---------------------------------
Db------5-7-5-----------5-7-5-7~~~~
Ab--/7~~-------7\---/7~~-----------
Eb---------------------------------

6b)       ^V    ^V^    ^V           ^V    ^
eb-----------------------------------------
Bb------8-10-8-10~~~-8-10-8-------8-10-8-10
Gb--/9~~--------------------9-7~~----------
Db-----------------------------------------
Ab-----------------------------------------
Eb-----------------------------------------

6c)
Gb------------------       --------------------------------------------
Db-----5-7--9----5-- twice ----------7-9-------9-7---------9-7--9-10-12
Ab--7~~-------5----7       -----5-5~~-----5-5-------3-5-3--------------
Eb------------------       -/7~~---------------------------------------
pre-solo


7a James)
Db--------------------------5-----------------9-7-5h7p5
Ab----5-7---5-7---5-7---5-7---5-7---5-7---5-7----------
Eb--0-----0-----0-----0-----------0-----0--------------
closing and it continues on similar to this and the
following pre solo

7b Kirk)
Db--2---3---4---5
Ab--2---3---4---5
Eb--0---1---2---3

_______________
solo by Jake Horbol

*=dive

                      tremelo picking                                         
                 
E||-----------------------------------------------------------------------------
B||--------12-12-12-12-12-12-12-12-12-12-12-12-12-12-12-12-12-12-12-12-12-12-12-
G||--12-12-12-12-12-12-12-12-12-12-12-12-12-12-12-12-12-12-12-12-12-12-12-12-12-
D||--12-12----------------------------------------------------------------------
A||-----------------------------------------------------------------------------
E||-----------------------------------------------------------------------------


                                                      *  *   *      *   *   *   *   *       * 
--12b-12b-12b-12b-14b-14b----------------------------------------|--------------------------------|
--12b-12b-12b-12b-14b-14b----14p12----12--14p12----12------------|--------------------------------|
-----------------------------------14-----------12----14-14--14--|--14--14--14--14----------------|


               *                                                         
--19----24b----24----20----|---------------------------------------------|
---------------------------|---------------------------------------------|
---------------------------|--------------------------14b---14b-14b---14b|
---------------------------|--14p12----12-14p12----12--------------------|
---------------------------|--------14----------14-----------------------|
---------------------------|---------------------------------------------|


                                                                  
--------------------------------------14h17-14h17-------14h17----|
--------------------------------------------------15h17-------15h|
--------------12h14-------------12h14----------------------------|
--------12h14-------------12h14----------------------------------|
--12h14-------------12h14----------------------------------------|


                               
-----17r-17b-17b-17b-17b-22b-||
--17-------------------------||
-----------------------------||
-----------------------------||
-----------------------------||
-----------------------------||





Comments


Popular Metallica tabs & chords
Cliff Burton Memorial Bass Tabs
Dyers Eve 3 Bass Tabs
Throgh The Never Bass Tabs
2x4 Tabs
Carol Of The Bells Tabs
Master Of Pupets Intro Lead In Tabs
Sucking My Love 1 Tabs
To Live Is To Die 1 Tabs
Whevever I May Roam Tabs
Bleeding Me Ukulele


Song lyrics



↑ Back to top | Tablatures and chords are parodies/interpretations of the original songs. You may use it for private study, scholarship, research or language learning purposes only
© 2014 AZChords.com Contact us | Privacy policy | DMCA | Add/correct tabs | Request tabs | Top 50 tabs