» » »

One Tabs (ver.6)

Artists:  A B C D E F G H I J K L M N O P Q R S T U V W X Y Z # 

One Tabs (ver.6)

Metallica
Rating:
0/5 (0 votes)

Tabs too difficult? Try these video lessons and learn fast.
                (Solo)
(Correct)
The other Versions are not right...
here is the right version....!!!-------------------------------------------------------------------------
												    	|
													|
intro solo												|
  1       2       3  4    1       2   3       4          1        2  3  4				|
|-----------------------|------------------------------|--------------------|				|
|-----------------------|-----3p2-----3p2---------3----|-3p2----------------|				|
|---------2---4b6b4-----|---------4-------2------------|-----4--------------|				|
|-----2h4---------------|------------------------------|--------------------|				|
|-----------------------|------------------------------|--------------------|				|
|-----------------------|------------------------------|--------------------|				|
 													|
 													|  
|----------------------------------|									|
|----------------------------------|									|
|----------------------------------|									|
|-----11p9/7-9p7/6-7p6/4-6p4/2-----|   <----------------------------------------------------------------|
|----------------------------------|
|----------------------------------|
 
    1   2    3        4         1     2     3     4       1     2     
|---------------------------|-------------------------|-------------|
|-2-------------2---3p2-----|-------------------------|-------------|
|---------2/4-----------2---|-2/4---------------------|-------------|
|---------------------------|-------------------------|-------------|
|---------------------------|-------------------------|-------------|
|---------------------------|-------------------------|-------------|
 
    1     2     3         4       1           2      3     4     
|-----------------}14---19----|-17-15-14-15--------------------|
|-----------------{x----------|-------------15-----------------|
|-----------------}x----------|--------------------------------|
|-----------------{x----------|--------------------------------|
|-----------------------------|--------------------------------|
|-----------------------------|--------------------------------|
 
    1       2     3       4          1       2          3      4     
|--------------------------------|---------------------------------|
|--------------------------------|---------------------------------|
|-----7p6-7-----9p7-9-------11p9-|-11----11/12---12---11-----------|
|--------------------------------|---------------------------------|
|--------------------------------|---------------------------------|
|--------------------------------|---------------------------------|
 
    1         2          3           4            1          2 
|---------------------------------------------|----------------12-----
|----------------------------------12---------|----12-14---15--------- 
|-----------11-12-14---------11-12------------|-11-------------------- 
|--------12---------------12---------------12-|----------------------- 
|-----14---------------14---------------14----|----------------------- 
|---------------------------------------------|----------------------- 
 
    3         4           1         2      3     4
 -----------------------|------------------------------|
 ---15---14---12---14---|-14-----15-12-----------------|
 -----------------------|------------------------------|
 -----------------------|------------------------------|
 -----------------------|------------------------------|
 -----------------------|------------------------------|
            
Tabs too difficult? Try these video lessons and learn fast.




comments powered by Disqus
↑ Back to top | Tablatures and chords are parodies/interpretations of the original songs. You may use it for private study, scholarship, research or language learning purposes only