>
 >
One 4

One 4 Guitar Tabs

Metallica - One 4 chords, tabs, tablatures, lyrics

Guitar lessons | Add/correct | Request | Top 50 tabs Artists:  A B C D E F G H I J K L M N O P Q R S T U V W X Y Z 0-9

One 4 Guitar Tabs – Metallica

CD, Sheet music, Poster

Do you like One 4? Share with your friends now
TabsTabs v2Tabs v3Tabs v4
PROPS GO TO: Sindre Froyn

One by Metallica
+++++++++++++++++++++++++++++++
                                                                         
************************************Solo 1: ***********************************************
************************************        *********************************************** 
  
  0:36          0:39                   0:43                       0:47                 
e|-------------------------------------2-0---0---------------------------------------------|
h|-------2------3r2---3r2---3-3r2----------3---3-2-3-2-0------------2h3-2-----2-2h3r2------|
g|-----2---4--------4-----2-------4----------------------2-2s4----4---------4---------2-4--|
D|-2h4-------------------------------------------------------------------------------------|
A|-----------------------------------------------------------------------------------------|
E|-----------------------------------------------------------------------------------------|
                                                                         
  0:55                                                                      
e|-14-19---17-15-14-15-----------------------------------------------------7---------------|
h|-X-------------------15---3r2h3-5r3h5-7r5h7-s8-8-7-------7-8-10------7-8-----------------|
g|-X-----------------------------------------------------7-----------7---------------------|
D|-X---------------------------------------------------9-----------9-----------------------|
A|-----------------------------------------------------------------------------------------|
E|-----------------------------------------------------------------------------------------|

  1:06
e|-------7-9-10-12-10-9-7-9-9-10-7---------------------------------------------------------|
h|-----7-----------------------------------------------------------------------------------|
g|---7-------------------------------------------------------------------------------------|
D|-9---------------------------------------------------------------------------------------|
A|-----------------------------------------------------------------------------------------|
E|-----------------------------------------------------------------------------------------|



************************************Solo 2: ***********************************************
************************************        ***********************************************
   
  3:13                                                                               
e|------------------------------10-8-7----7-8-----17-15-14-15-17-17-15-14h15r14------------|
h|-10-8-7-8-10---10-8-7---7------------10-----8---------------------------------15---------|
g|----------------------9---7--------------------------------------------------------------|
D|-----------------------------------------------------------------------------------------|
A|-----------------------------------------------------------------------------------------|
E|-----------------------------------------------------------------------------------------|
                                                                                     
  3:23                                                       3:28
e|----14-15-17--19r17r15--19r17r15--19r17r15--14-12h14-------------------------------------|
h|-15--------------------------------------------------15------------------13-13-13-12-----|
g|------------------------------------------------------------12-12-12-11--12-12-12-12-----|
D|------------------------------------------------------------12-12-12-12------------------|
A|-----------------------------------------------------------------------------------------|
E|-----------------------------------------------------------------------------------------|

  3:31
    T         T         T         T         T         T
e|-20-17-11--20-17-11--20-17-11--20-17-11--20-17-11--20-17-11----12h13r12--12h13r12--------|
h|-----------------------------------------------------------------------------------------|
g|-----------------------------------------------------------------------------------------|
D|-----------------------------------------------------------------------------------------|
A|-----------------------------------------------------------------------------------------|
E|-----------------------------------------------------------------------------------------|
                              


************************************Solo 3: ***********************************************
************************************        ***********************************************

  5:45 
    T          T          T          T          T          T          T          T
e|-19-15-12---19-15-12---19-15-12---19-15-12---19-15-12---19-15-12---19-15-12---19-15-12---|
h|-----------------------------------------------------------------------------------------|
g|-----------------------------------------------------------------------------------------|
D|-----------------------------------------------------------------------------------------|
A|-----------------------------------------------------------------------------------------|
E|-----------------------------------------------------------------------------------------|
*Tapping, use pick on the 17th, 19th and 20th fret 

  5:46                                                                                   
    T          T          T          T          T          T          T          T      
e|-20-15-12---20-15-12---20-15-12---20-15-12---20-15-12---20-15-12---20-15-12---20-15-12---|
h|-----------------------------------------------------------------------------------------|
g|-----------------------------------------------------------------------------------------|
D|-----------------------------------------------------------------------------------------|
A|-----------------------------------------------------------------------------------------|
E|-----------------------------------------------------------------------------------------|

  5:47                                                                                     
    T          T          T          T          T          T          T          T  
e|-----------------------------------------------------------------------------------------|
h|-19-15-12---19-15-12---19-15-12---19-15-12---19-15-12---19-15-12---19-15-12---19-15-12---|
g|-----------------------------------------------------------------------------------------|
D|-----------------------------------------------------------------------------------------|
A|-----------------------------------------------------------------------------------------|
E|-----------------------------------------------------------------------------------------|

  5:48                                                                                     
    T          T          T          T          T          T          T          T 
e|-----------------------------------------------------------------------------------------|
h|-20-15-12---20-15-12---20-15-12---20-15-12---20-15-12---20-15-12---20-15-12---20-15-12---|
g|-----------------------------------------------------------------------------------------|
D|-----------------------------------------------------------------------------------------|
A|-----------------------------------------------------------------------------------------|
E|-----------------------------------------------------------------------------------------|

  5:49
    T          T          T          T          T          T          T          T
e|-----------------------------------------------------------------------------------------|
h|-17-13-10---17-13-10---17-13-10---17-13-10---17-13-10---17-13-10---17-13-10---17-13-10---|
g|-----------------------------------------------------------------------------------------|
D|-----------------------------------------------------------------------------------------|
A|-----------------------------------------------------------------------------------------|
E|-----------------------------------------------------------------------------------------|

  5:50                                                                                     
    T          T          T          T          T          T          T          T 
e|-----------------------------------------------------------------------------------------|
h|-18-13-10---18-13-10---18-13-10---18-13-10---18-13-10---18-13-10---18-13-10---18-13-10---|
g|-----------------------------------------------------------------------------------------|
D|-----------------------------------------------------------------------------------------|
A|-----------------------------------------------------------------------------------------|
E|-----------------------------------------------------------------------------------------|

  5:51                                     5:53 
                                           ...strum...
e|--------------------------------------------14-15-17----17-22b---------------------------|
h|-14-12----12-----------------------------12----------15----------------------------------|
g|-------14----14-12-14-12-11-12-11--------------------------------------------------------|
D|----------------------------------14-----------------------------------------------------|
A|-----------------------------------------------------------------------------------------|
E|-----------------------------------------------------------------------------------------|
                                                                                          
  5:57                                                                                   
e|15-19r17r15---------19r17r15---------19r17r15----------19r17r15--------19r17r15----------|
h|------------19r17r15---------19r17r15---------19r17r15---------19r17r15---------19r17r15-|
g|-----------------------------------------------------------------------------------------|
D|-----------------------------------------------------------------------------------------|
A|-----------------------------------------------------------------------------------------|
E|-----------------------------------------------------------------------------------------|

  6:00 
e|---19r17r15--19r17r15--19r17r15--19r17r15--19r17r15--19r17r15--19r17r15--19r17r15--------|
h|-----------------------------------------------------------------------------------------|
g|-----------------------------------------------------------------------------------------|
D|-----------------------------------------------------------------------------------------|
A|-----------------------------------------------------------------------------------------|
E|-----------------------------------------------------------------------------------------|

  6:03                       6:04                  6:05             
e|-14h15-15-15--14h15-15-15--17-15-15--17-15-15---19r17r15h17--17r15r14h15-----------------|
h|--------------------------------------------------------------------------19r17r15h17----|
g|-----------------------------------------------------------------------------------------|
D|-----------------------------------------------------------------------------------------|
A|-----------------------------------------------------------------------------------------|
E|-----------------------------------------------------------------------------------------|

  6:07                        6:08
e|-----------------------------------------------------------------------------------------|
h|-17r15r13h15--15r13r12h13---13-12--12----------------------12-12-12-12b------------------|
g|---------------------------------14--14-12-14-12--12--12-14------------------------------|
D|------------------------------------------------14--14-----------------------------------|
A|-----------------------------------------------------------------------------------------|
E|-----------------------------------------------------------------------------------------|

   6:10                                     6:13                                  6:15
e|-----------------------------------------------------------------------------------------|
h|-12---------------------------------------------15-------15-------15-------15---17b-17---|
g|---14r12h14--14-12------------------------------15-------15-------15-------15---17b-17r16|
D|------------------14-13-12----------------17-17----17-17----17-17----17-17---------------|
A|--------------------------14-13-12-10----------------------------------------------------|
E|-----------------------------------------------------------------------------------------|

   6:15                                  6:19
e|--------------------------------------14h15-15-15--14h15-15-15--14h-15-15--14h15-15-15---|
h|-------15-------15--------15-------15----------------------------------------------------|
g|-------15-------15--------15-------15----------------------------------------------------|
D|-17-17----17-17-----17-17----17-17-------------------------------------------------------|
A|-----------------------------------------------------------------------------------------|
E|-----------------------------------------------------------------------------------------|

                  
Notation Legend:
T=tap
h=hammer
r=release (pull off)
s=slide
b=bend
bs=bend and slide (duh!)
3:29= 3 minutes and 29 seconds into song (duh!)

Oslo, 22nd December 2002





Comments


Popular Metallica tabs & chords
Enter Sandman 6 Bass Tabs
Astronomy 3 Tabs
Blackened 3 Tabs
Bleeding Me 2 Tabs
Crash Course In Brain Surgery 1 Tabs
Jump In The Fire Outro Tabs
Orion Tabs
Ride The Lightning 1 Tabs
Sabbra Cadabra 1 Tabs
Sabra Cadabra Tabs


Song lyrics



↑ Back to top | Tablatures and chords are parodies/interpretations of the original songs. You may use it for private study, scholarship, research or language learning purposes only
© 2014 AZChords.com Contact us | Privacy policy | DMCA | Add/correct tabs | Request tabs | Top 50 tabs