» » »

Metallica, Off To Never Riffs Tabs (ver.1)

Artists:  A B C D E F G H I J K L M N O P Q R S T U V W X Y Z # 

Off To Never Riffs Tabs (ver.1)

Metallica Tabs
Rating:
0/5 (0 votes)
Off To Never Riffs lessons Tabs too difficult? Try these video lessons and learn fast
                Metallica 
Off To Never Never Land
(Chorus)


Repeat ( 3 Times )

E-------------------
B-------------------
G-------------------
D-----5-------------
A-7-7----5----------
E--0---7------------

Play Once

E-------------------
B-------------------
G-------------------
D-------------------
A-------------------
E-0-3-0-3-0-2-3-2-0-
            

comments powered by Disqus
↑ Back to top | Metallica Tabs for Off To Never Riffs. Lyrics for acoustic guitar and electric guitar. Tablatures and chords are parodies/interpretations of the original songs. You may use it for private study, scholarship, research or language learning purposes only