» » »

Nothing Eles Matters Tabs (ver.11)

Artists:  A B C D E F G H I J K L M N O P Q R S T U V W X Y Z # 

Nothing Eles Matters Tabs (ver.11)

Metallica
Rating:
0/5 (0 votes)

Hard to play? Try these video lessons and learn fast.
                (Unplugged)
metallica
nothing else matters unplugged solo

this only took me about 30 mins to write so have fun playin ppl :)


E-----------------------------------------12-------12-10-------------------10-
B-12-12-10-8---8-------------8-10-8-12-12----12-12-------12-11-12-12-11-10----
G------------9---11-9-11-7-9--------------------------------------------------

E-10-9--8---15-14----15-14-17-15-14-12-15-14------------------------12-10-12-10-10-12
B-12-11-10--------12-------------------------12----10----12------10------------------
G-----------------------------------------------12----12----9-12---------------------

E-12-10----10---------------------------------------------------
B-------12----12-12-10------------------------------------------
G----------------------12-9----12-9----12-9---------------------
D---------------------------12------12--------------------------
            
Hard to play? Try these video lessons and learn fast. | Correct




comments powered by Disqus
↑ Back to top | Tablatures and chords are parodies/interpretations of the original songs. You may use it for private study, scholarship, research or language learning purposes only