>
 >
Nothing Else Matters Intro

Nothing Else Matters Intro Guitar Tabs

Metallica - Nothing Else Matters Intro chords, tabs, tablatures, lyrics

Guitar lessons | Add/correct | Request | Top 50 tabs Artists:  A B C D E F G H I J K L M N O P Q R S T U V W X Y Z 0-9

Nothing Else Matters Intro Guitar Tabs – Metallica

CD, Sheet music, Poster

Do you like Nothing Else Matters Intro? Share with your friends now
Tabs
I've worked very hard on this TAB, so use it good :)
This is only the intro of the song, but the chords are
easy: Em D C for the verse and: G B7 Em 

-|--------0-----|--------0-----|-------0-----|-------0---7-|-7-----7------|---
-|------0---0---|------0---0---|-----0---0---|-----0---0---|---0---0--0---|---
-|----0-------0-|----0-------0-|---0-------0-|---0---------|-----0------0-|---
-|--------------|--------------|-------------|-------------|--------------|---
-|--------------|--------------|-------------|-------------|--------------|---
-|--0-----------|--0-----------|-0-----------|-0-----------|-0------------|---
                                                                              

-|-----7--8--7-8\5-|-7-----5--3\2---|--------2-----|---------0---0-|-0--------
-|-0---0--0--------|-0------------5-|--5---5---5---|------5--5---5-|-5--------
-|---0-------------|----------------|----5-------5-|----5----5---5-|-5--------
-|-----------------|----------------|--------------|---------------|------5---
-|-----------------|----------------|--0-----------|--0------0---2-|-3--3-----
-|-0---------------|----------------|--------------|---------------|----------
                                                                              

------3------0-|-0----------5------|---------12-----|-------0-----|-------0---
--------5----5-|-7------7-----7--5-|------12----0---|-----0---0---|-----0-----
---5------5--5-|-7----7---7--------|---12---------0-|---0-------0-|---0-------
----5----------|-0-----------------|----------------|-------------|-----------
-------------3-|----5--------------|----------------|-------------|-----------
---------------|-------------------|-0--------------|-0-----------|-0---------
                                                                              

------|-------0-----|---------7-|--------------|---------7-|-------------|----
--0---|-----0---0---|---------8-|-----7------5-|---------8-|-----7-----5-|----
----0-|---0-------0-|-------9---|-----7------5-|-------9---|-----7-----5-|----
------|-------------|-----9-----|---7------5---|-----9-----|---7-----5---|----
------|-------------|---7-------|-5------3-----|---7-------|-5-----3-----|----
------|-0-----------|-0---------|--------------|-0---------|-------------|----
                                                                              

---------7-|--------------|--------------|-------0-----|-------0-----|-----7--
---------8-|-----7------5-|-----3------4-|-----0---0---|-----0---0---|---8----
-------9---|-----7------5-|-----4------2-|---0-------0-|---0-------0-|-9------
-----9-----|---7------5---|---5------4---|-------------|-------------|--------
---7-------|-5------3-----|-3------2-----|-------------|-------------|--------
-0---------|--------------|--------------|-0-----------|-0-----------|--------
                                                                              

-|-5------3-----|-3-------2-----|-------|-12-|--------------------------------
-|---7------5---|---3-------4---|-------|-12-|--------------------------------
-|-----7------5-|-----4-------2-|-2---0-|-12-|--------------------------------
-|--------------|---------------|---4---|----|--------------------------------
-|--------------|---------------|-------|----|--------------------------------
-|--------------|---------------|-------|----|--------------------------------





Comments


Popular Metallica tabs & chords
Ain't My Bitch 2 Bass Tabs
For Whom The Bell Tolls 5 Bass Tabs
Devil's Dance Tabs
Hole In The Sky Tabs
Saint Anger 1 Tabs
Stone Cold Crazy Tabs
Stone Cold Crazy 1 Tabs
The Shortest Straw Tabs
Unforgiven Ii Intro Tabs
Whiplash Tabs


Song lyrics



↑ Back to top | Tablatures and chords are parodies/interpretations of the original songs. You may use it for private study, scholarship, research or language learning purposes only
© 2014 AZChords.com Contact us | Privacy policy | DMCA | Add/correct tabs | Request tabs | Top 50 tabs