>
 >
Nothing Else Matters Full Version

Nothing Else Matters Full Version Guitar Tabs

Metallica - Nothing Else Matters Full Version chords, tabs, tablatures, lyrics

Guitar lessons | Add/correct | Request | Top 50 tabs Artists:  A B C D E F G H I J K L M N O P Q R S T U V W X Y Z 0-9

Nothing Else Matters Full Version Guitar Tabs – Metallica

CD, Sheet music, Poster

Do you like Nothing Else Matters Full Version? Share with your friends now
Tabs
This is the Studio Version!
If you have any comments, corrections or questions, please e-mail me.
(Ha van valami hozzáfűznivalód, kiegészítésed, kérdésed, akkor írj.)
(Magyarul is írhatsz!)


Tuning (Hangolás): Standard

h: Hammer on (Ráütés, "kalapács")
p: Pull off (Lehúzás)
b: Bend (Nyújtás)
v: Vibrato (Tartás)
: Slide down (Lecsúszás)
/: Slide up (Felcsúszás)


Intro (Bevezető):
E|-------0-----|-------0-----|-------0-----|-------0---7-|
B|-----0---0---|-----0---0---|-----0---0---|-----0---0---|
G|---0-------0-|---0-------0-|---0-------0-|---0---------|
D|-------------|-------------|-------------|-------------|
A|-------------|-------------|-------------|-------------|
E|-0-----------|-0-----------|-0-----------|-0-----------|

E|-7-----------7p0---------|---------7---8---7h85---7-5p32-----|
B|-----0-------0---0-------|---------0---0-----------0-------5---|
G|---------0-----------0---|-----0-------------------------------|
D|-------------------------|-------------------------------------|
A|-------------------------|-------------------------------------|
E|-0-----------------------|-0-----------------------------------|

E|-------------2p0---------|-------------0---0---0---|
B|-5-------5-------5-------|---------5-------5---5---|
G|-----5---------------5---|-----5-----------5---5---|
D|-------------------------|-------------------------|
A|-0-----------------------|-0---------------0---2---|
E|-------------------------|-------------------------|

E|-0-----------3p0-----0---|-0-----------0h5p0--------|
B|-5-------5-------5---5---|-7-------7---------7p0-0h5|
G|-5-----5---5-------5-5---|-7-----7---7--------------|
D|-------------------------|--------------------------|
A|-3---3---------------3---|-5---5--------------------|
E|-------------------------|--------------------------|

E|---------12-----|-------0-----|-------0-----|-------0-----|
B|------12----0---|-----0---0---|-----0---0---|-----0---0---|
G|---12---------0-|---0-------0-|---0-------0-|---0-------0-|
D|----------------|-------------|-------------|-------------|
A|----------------|-------------|-------------|-------------|
E|-0--------------|-0-----------|-0-----------|-0-----------|

E|-------------7-----------|-------------|-------------7-----------|
B|-------------8-----------|-----7-----5-|-------------8-----------|
G|-----------9-------------|-----7-----5-|-----------9-------------|
D|---------9---------------|---7-----5---|---------9---------------|
A|-------7-----------------|-5-----3-----|-------7-----------------|
E|-0-----------------------|-------------|-0-----------------------|

E|-------------|-------------7-----------|-------------------------|
B|-----7-----5-|-------------8-----------|--------7-----------5----|
G|-----7-----5-|-----------9-------------|--------7-----------5----|
D|---7-----5---|---------9---------------|-----7-----------5-------|
A|-5-----3-----|-------7-----------------|-5-----------3-----------|
E|-------------|-0-----------------------|-------------------------|

E|---------------------|-------0-----|-------0-----|
B|-------3---------4---|-----0---0---|-----0---0---|
G|-------4---------2---|---0-------0-|---0-------0-|
D|-----5---------4-----|-------------|-------------|
A|-----------2---------|-------------|-------------|
E|-3-------------------|-0-----------|-0-----------|


Verse (Versszak):
E|-------------3-----0-----|-2-----3-----0-----------|
B|---------0-----------0---|---------3-------3-------|
G|-----0-----------0-----0-|-----------0-------0-----|
D|-------------------------|-0-----------------------|
A|-------------------------|-------------3-----------|
E|-0-----------------------|---------------------3-2-|

E|-------------3-----0-----|-2-----------------------|
B|---------0-----------0---|-------3-----3-----3-----|
G|-----0-----------0-----0-|---------2p0-----0-------|
D|-------------------------|-0--0--------------------|
A|-------------------------|-------------3-----------|
E|-0-----------------------|---------------------3-2-|

E|-------------3-----0-----|-2-----3-----3-----------|
B|---------0-----------0---|---------3-------3-------|
G|-----0-----------0-----0-|-----------0---------0---|
D|-------------------------|-0--0--------------------|
A|-------------------------|-------------3-----------|
E|-0-----------------------|-------------------------|

E|---------3---0-------2---|-0-----0-----|-------------0-----------|
B|---------3---0---------0-|-----0---0---|---------0-------0-------|
G|-----0-------2-----------|---0-------0-|-----0-------------------|
D|-------------------------|-------------|-------------------------|
A|-------------2-----2-----|-------------|-------------------------|
E|-3-----------------------|-0-----------|-0-------------------3-2-|


E|-------------3-----0-----|-2-----3-----0-----------|
B|---------0-----------0---|---------3-------3-------|
G|-----0-----------0-----0-|-----------0-------0-----|
D|-------------------------|-0-----------------------|
A|-------------------------|-------------3-----------|
E|-0-----------------------|---------------------3-2-|

E|-------------3-----0-----|-2-----------------------|
B|---------0-----------0---|-------3-----3-----3-----|
G|-----0-----------0-----0-|---------2p0-----0-------|
D|-------------------------|-0--0--------------------|
A|-------------------------|-------------3-----------|
E|-0-----------------------|---------------------3-2-|

E|-------------3-----0-----|-2-----3-----3-----------|
B|---------0-----------0---|---------3-------3-------|
G|-----0-----------0-----0-|-----------0---------0---|
D|-------------------------|-0--0--------------------|
A|-------------------------|-------------3-----------|
E|-0-----------------------|-------------------------|

E|---------3---0-------2---|-0-----0-----|-------------0-----------|
B|---------3---0---------0-|-----0---0---|---------0-------0-------|
G|-----0-------2-----------|---0-------0-|-----0-------------------|
D|-------------------------|-------------|-------------------------|
A|-------------2-----2-----|-------------|-------------------------|
E|-3-----------------------|-0-----------|-0-------------------3-2-|


E|-------------3-----0-----|-2-----3-----0-----------|
B|---------0-----------0---|---------3-------3-------|
G|-----0-----------0-----0-|-----------0-------0-----|
D|-------------------------|-0-----------------------|
A|-------------------------|-------------3-----------|
E|-0-----------------------|---------------------3-2-|

E|-------------3-----0-----|-2-----------------------|
B|---------0-----------0---|-------3-----3-----3-----|
G|-----0-----------0-----0-|---------2p0-----0-------|
D|-------------------------|-0--0--------------------|
A|-------------------------|-------------3-----------|
E|-0-----------------------|---------------------3-2-|

E|-------------3-----0-----|-2-----3-----3-----------|
B|---------0-----------0---|---------3-------3-------|
G|-----0-----------0-----0-|-----------0---------0---|
D|-------------------------|-0--0--------------------|
A|-------------------------|-------------3-----------|
E|-0-----------------------|-------------------------|

E|---------3---0-------2---|-0-----0-----|
B|---------3---0---------0-|-----0---0---|
G|-----0-------2-----------|---0-------0-|
D|-------------------------|-------------|
A|-------------2-----2-----|-------------|
E|-3-----------------------|-0-----------|


Chorus (Refrén):                
E|-------------|-2-----2-2-2-0---2--3--2-|
B|-1-----2-----|-3-----3-3-3-3---3--3--3-|
G|-0-----2-----|-2-----2-2-2-2---2--2--2-|
D|-2-----2-----|-0-----0-0-0-0---0--0--0-|
A|-3-----0-----|-------------------------|
E|-------------|-------------------------|

E|-------------|-2-----2-2-2-0---2--3--2-|
B|-1-----2-----|-3-----3-3-3-3---3--3--3-|
G|-0-----2-----|-2-----2-2-2-2---2--2--2-|
D|-2-----2-----|-0-----0-0-0-0---0--0--0-|
A|-3-----0-----|-------------------------|
E|-------------|-------------------------|

E|-------------|-2-----2-2-2-0------0-----|-------0------|
B|-1-----2-----|-3-----3-3-3-0----0---0---|-----0---0----|
G|-0-----2-----|-2-----2-2-2-0--0-------0-|---0-------0--|
D|-2-----2-----|-0-----0-0-0-2------------|--------------|
A|-3-----0-----|-------------2------------|--------------|
E|-------------|-------------0------------|-0------------|


Verse (Versszak):
E|-------------3-----0-----|-2-----3-----0-----------|
B|---------0-----------0---|---------3-------3-------|
G|-----0-----------0-----0-|-----------0-------0-----|
D|-------------------------|-0-----------------------|
A|-------------------------|-------------3-----------|
E|-0-----------------------|---------------------3-2-|

E|-------------3-----0-----|-2-----------------------|
B|---------0-----------0---|-------3-----3-----3-----|
G|-----0-----------0-----0-|---------2p0-----0-------|
D|-------------------------|-0--0--------------------|
A|-------------------------|-------------3-----------|
E|-0-----------------------|---------------------3-2-|

E|-------------3-----0-----|-2-----3-----3-----------|
B|---------0-----------0---|---------3-------3-------|
G|-----0-----------0-----0-|-----------0---------0---|
D|-------------------------|-0--0--------------------|
A|-------------------------|-------------3-----------|
E|-0-----------------------|-------------------------|

E|---------3---0-------2---|-0-----0-----|
B|---------3---0---------0-|-----0---0---|
G|-----0-------2-----------|---0-------0-|
D|-------------------------|-------------|
A|-------------2-----2-----|-------------|
E|-3-----------------------|-0-----------|


Chorus (Refrén):                
E|-------------|-2-----2-2-2-0---2--3--2-|
B|-1-----2-----|-3-----3-3-3-3---3--3--3-|
G|-0-----2-----|-2-----2-2-2-2---2--2--2-|
D|-2-----2-----|-0-----0-0-0-0---0--0--0-|
A|-3-----0-----|-------------------------|
E|-------------|-------------------------|

E|-------------|-2-----2-2-2-0---2--3--2-|
B|-1-----2-----|-3-----3-3-3-3---3--3--3-|
G|-0-----2-----|-2-----2-2-2-2---2--2--2-|
D|-2-----2-----|-0-----0-0-0-0---0--0--0-|
A|-3-----0-----|-------------------------|
E|-------------|-------------------------|

E|-------------|-2-----2-2-2-0------0-----------0------|
B|-1-----2-----|-3-----3-3-3-0----0---0-------0---0----|
G|-0-----2-----|-2-----2-2-2-0--0-------0---0-------0--|
D|-2-----2-----|-0-----0-0-0-2-------------------------|
A|-3-----0-----|-------------2-------------------------|
E|-------------|-------------0------------0------------|


Interlude (Átvezető):
E|-12------14---|-15-------17---|-8------8------|-------8--------|
B|---12------12-|---12-------12-|---5------5----|----5-----5-----|
G|--------------|---------------|-----5------5--|-5----------5--|
D|--------------|---------------|---------------|----------------|
A|--------------|---------------|---------------|----------------|
E|--------------|---------------|---------------|----------------|

E|-0--------0---|-0--------0----|-0-7------7-0-----|--------0-------|
B|----1-------1-|----3-------3--|-----0--------0---|------0---0-----|
G|-------2------|-------2-------|-------0--------0-|----0-------0---|
D|--------------|---------------|------------------|----------------|
A|--------------|---------------|------------------|----------------|
E|--------------|---------------|------------------|-0--------------|


E|-12------14---|-15-------17---|-8------8------|-------8--------|
B|---12------12-|---12-------12-|---5------5----|----5-----5-----|
G|--------------|---------------|-----5------5--|-5----------5--|
D|--------------|---------------|---------------|----------------|
A|--------------|---------------|---------------|----------------|
E|--------------|---------------|---------------|----------------|

E|-0------0-----|-0------0------|---------------|
B|---1------1---|---3------3----|----12---12----|
G|-----2--------|-----2---------|-12------------|
D|--------------|---------------|------------14-|
A|--------------|---------------|---------------|
E|--------------|---------------|---------------|

E|---------------------------|
B|-15--15--15b---------------|
G|-14--14b-15b--12--------12-|
D|----------------14-12h14---|
A|---------------------------|
E|---------------------------|


Verse (Versszak):
E|-------------3-----0-----|-2-----3-----0-----------|
B|---------0-----------0---|---------3-------3-------|
G|-14--0-----------0-----0-|-----------0-------0-----|
D|-------------------------|-0-----------------------|
A|-------------------------|-------------3-----------|
E|-0-----------------------|---------------------3-2-|

E|-------------3-----0-----|-2-----------------------|
B|---------0-----------0---|-------3-----3-----3-----|
G|-----0-----------0-----0-|---------2p0-----0-------|
D|-------------------------|-0--0--------------------|
A|-------------------------|-------------3-----------|
E|-0-----------------------|---------------------3-2-|

E|-------------3-----0-----|-2-----3-----3-----------|
B|---------0-----------0---|---------3-------3-------|
G|-----0-----------0-----0-|-----------0---------0---|
D|-------------------------|-0--0--------------------|
A|-------------------------|-------------3-----------|
E|-0-----------------------|-------------------------|

E|---------3---0-------2---|-0-----0-----|-------------0-----------|
B|---------3---0---------0-|-----0---0---|---------0-------0-------|
G|-----0-------2-----------|---0-------0-|-----0-------------------|
D|-------------------------|-------------|-------------------------|
A|-------------2-----2-----|-------------|-------------------------|
E|-3-----------------------|-0-----------|-0-------------------3-2-|


E|-------------3-----0-----|-2-----3-----0-----------|
B|---------0-----------0---|---------3-------3-------|
G|-----0-----------0-----0-|-----------0-------0-----|
D|-------------------------|-0-----------------------|
A|-------------------------|-------------3-----------|
E|-0-----------------------|---------------------3-2-|

E|-------------3-----0-----|-2-----------------------|
B|---------0-----------0---|-------3-----3-----3-----|
G|-----0-----------0-----0-|---------2p0-----0-------|
D|-------------------------|-0--0--------------------|
A|-------------------------|-------------3-----------|
E|-0-----------------------|---------------------3-2-|

E|-------------3-----0-----|-2-----3-----3-----------|
B|---------0-----------0---|---------3-------3-------|
G|-----0-----------0-----0-|-----------0---------0---|
D|-------------------------|-0--0--------------------|
A|-------------------------|-------------3-----------|
E|-0-----------------------|-------------------------|

E|---------3---0-------2---|-0-----0-----|
B|---------3---0---------0-|-----0---0---|
G|-----0-------2-----------|---0-------0-|
D|-------------------------|-------------|
A|-------------2-----2-----|-------------|
E|-3-----------------------|-0-----------|


Chorus (Refrén):
E|-------------|-2-----2-2-2-0---2--3--2-|
B|-1-----2-----|-3-----3-3-3-3---3--3--3-|
G|-0-----2-----|-2-----2-2-2-2---2--2--2-|
D|-2-----2-----|-0-----0-0-0-0---0--0--0-|
A|-3-----0-----|-------------------------|
E|-------------|-------------------------|

E|-------------|-2-----2-2-2-0---2--3--2-|
B|-1-----2-----|-3-----3-3-3-3---3--3--3-|
G|-0-----2-----|-2-----2-2-2-2---2--2--2-|
D|-2-----2-----|-0-----0-0-0-0---0--0--0-|
A|-3-----0-----|-------------------------|
E|-------------|-------------------------|

E|-------------|-2-----2-2-2-0---2--3--2-|
B|-1-----2-----|-3-----3-3-3-3---3--3--3-|
G|-0-----2-----|-2-----2-2-2-2---2--2--2-|
D|-2-----2-----|-0-----0-0-0-0---0--0--0-|
A|-3-----0-----|-------------------------|
E|-------------|-------------------------|

E|-------------|-2-----2-2-2-0---2--3--2-|
B|-1-----2-----|-3-----3-3-3-3---3--3--3-|
G|-0-----2-----|-2-----2-2-2-2---2--2--2-|
D|-2-----2-----|-0-----0-0-0-0---0--0--0-|
A|-3-----0-----|-------------------------|
E|-------------|-------------------------|

E|-------------|-2-----2-2-2-0------0-----|-------0------|
B|-1-----2-----|-3-----3-3-3-0----0---0---|-----0---0----|
G|-0-----2-----|-2-----2-2-2-0--0-------0-|---0-------0--|
D|-2-----2-----|-0-----0-0-0-2------------|--------------|
A|-3-----0-----|-------------2------------|--------------|
E|-------------|-------------0------------|-0------------|


SOLO (SZÓLÓ):

Solo's accopaniment (Szóló kísérete):
E|--------------|-------------|--------------|-------------|
B|--------------|-------------|--------------|-------------|
G|--------------|-------------|--------------|-------------|
D|---------9--9-|-7--7--5-----|---------9--9-|-7--7--5-----|
A|-2--2/7--7--7-|-5--5--3-----|-2--2/7--7--7-|-5--5--3-----|
E|-0------------|---------3-2-|-0------------|---------3-2-|

E|--------------|-------------|----------|-----------|
B|--------------|-------------|----------|-----------|
G|--------------|-------------|----------|-----------|
D|---------9--9-|-7--7--5-----|-----4----|-----------|
A|-2--2/7--7--7-|-5--5--3-----|-5---2----|-2v--------|
E|-0------------|---------3-2-|-3--------|-0v--------|


Solo (Szóló):
E|-------------------------|-------------------------------------|
B|-15----------------------|-------------------------------------|
G|-14b---14b12-----14--12-|-11h12p11----11-------------12-14-12-|
D|-------------------------|----------14----12-14----------------|
A|-------------------------|-------------------------------------|
E|-------------------------|-------------------------------------|

E|-------12-------12-------------------|--------------------------|
G|----12-------12----15p12----12-------|------------14---14-13----|
G|-14b------14b------------15----15-14-|-12b-12-----14---14-13-12-|
D|-------------------------------------|--------14----------------|
A|-------------------------------------|--------------------------|
E|-------------------------------------|--------------------------|

E|-15-14-----15-14-17-|-15----14h15p1412----15-14----------------|
B|--------12----------|-------------------12--------12------------|
G|--------------------|----------------------------------12-14-12-|
D|--------------------|-------------------------------------------|
A|--------------------|-------------------------------------------|
E|--------------------|-------------------------------------------|

E|----------------------12--------------|------------|
B|-15---------------12------15-15b--12--|-15bv-------|
G|-14b--12----12-14b--------------------|------------|
D|---------14---------------------------|------------|
A|--------------------------------------|------------|
E|--------------------------------------|------------|

E|-----------------|--------------|
B|-12h15p12\\\7-|-5h7p5--------|
G|-----------------|--------------|
D|-----------------|--------------|
A|-----------------|--------------|
E|-----------------|--------------|


The last verse (A legutolsó versszak):
E|-------------3-----0-----|-2-----3-----0-----------|
B|---------0-----------0---|---------3-------3-------|
G|-----0-----------0-----0-|-----------0-------0-----|
D|-------------------------|-0-----------------------|
A|-------------------------|-------------3-----------|
E|-0-----------------------|---------------------3-2-|

E|-------------3-----0-----|-2-----------------------|
B|---------0-----------0---|-------3-----3-----------|
G|-----0-----------0-----0-|---------2p0-----0-------|
D|-------------------------|-0--0--------------------|
A|-------------------------|-------------3-----------|
E|-0-----------------------|---------------------3-2-|

E|-------------3-----0-----|-2-----3-----3-----------|
B|---------0-----------0---|---------3-------3-------|
G|-----0-----------0-----0-|-----------0---------0---|
D|-------------------------|-0--0--------------------|
A|-------------------------|-------------3-----------|
E|-0-----------------------|-------------------------|

E|---------3---0-----2-----|
B|---------3---0-----0-----|
G|-----0-------2-----2-----|
D|-------------------------|
A|-------------2-----2-----|
E|-3-----------------------|


The end (A vége):
E|-0-----0-----|-------0---7-|-7-----------7p0---------|
B|-----0---0---|-----0---0---|-----0-----------0-------|
G|---0-------0-|---0---------|---------0-----------0---|
D|-------------|-------------|-------------------------|
A|-------------|-------------|-------------------------|
E|-0-----------|-0-----------|-0-----------------------|

E|---------7---8---7h8p75|--7---53--0-|
B|---------0---0----------|--0----------|
G|-----0------------------|-------------|
D|------------------------|-------------|
A|------------------------|-------------|
E|-0----------------------|-------------|

E|-0-----0-----|-------0---7-|-7-----------7p0---------|
B|-----0---0---|-----0---0---|-----0-----------0-------|
G|---0-------0-|---0---------|---------0-----------0---|
D|-------------|-------------|-------------------------|
A|-------------|-------------|-------------------------|
E|-0-----------|-0-----------|-0-----------------------|

E|---------7---8---7h8p75|--7---53--0-|
B|---------0---0----------|--0----------|
G|-----0------------------|-------------|
D|------------------------|-------------|
A|------------------------|-------------|
E|-0----------------------|-------------|

E|-0-----0-----|-------0---7-|-7-----------7p0---------|
B|-----0---0---|-----0---0---|-----0-----------0-------|
G|---0-------0-|---0---------|---------0-----------0---|
D|-------------|-------------|-------------------------|
A|-------------|-------------|-------------------------|
E|-0-----------|-0-----------|-0-----------------------|

E|---------7---8---7h8p75|--7---53--0-|
B|---------0---0----------|--0----------|
G|-----0------------------|-------------|
D|------------------------|-------------|
A|------------------------|-------------|
E|-0----------------------|-------------|





Comments


Popular Metallica tabs & chords
The Four Horsmen Bass Tabs
Am I Evil? 1 Tabs
Am I Evil? 2 Tabs
And Justice For All With Tabs
Blitzkrieg Tabs
For Whom The Bell Tolls Complete Tabs
Free Speech For The Dumb Tabs
Last Caress Tabs
Last Caress 2 Tabs
Nothing Else Matters 2 Tabs


Song lyrics



↑ Back to top | Tablatures and chords are parodies/interpretations of the original songs. You may use it for private study, scholarship, research or language learning purposes only
© 2014 AZChords.com Contact us | Privacy policy | DMCA | Add/correct tabs | Request tabs | Top 50 tabs