>
 >
Nothing Else Matters (Complete Score)

Nothing Else Matters (Complete Score) Guitar Tabs

Metallica - Nothing Else Matters (Complete Score) chords, tabs, tablatures, lyrics

Guitar lessons | Add/correct | Request | Top 50 tabs Artists:  A B C D E F G H I J K L M N O P Q R S T U V W X Y Z 0-9

Nothing Else Matters (Complete Score) Guitar Tabs – Metallica

CD, Sheet music, Poster

Do you like Nothing Else Matters (Complete Score)? Share with your friends now
Tabs
Bar: 6/8
Done by: Franz Winter, Germany

You have to listen to the song to know how to play it right.

h: hammer on 	
p: pull off
/: slide up
b: bend
v: vibrato
\: slide down


Song overview: (Bars)

  1 to  24: Intro
 25 to  50: Verse 1, 2, 3
 51 to  57: Refrain
 58 to  66: Verse 1
 67 to  73: Refrain
 74 to  90: Interlude
 91 to 107: Verse 2, 3
108 to 119: Refrain 2
120 to 130: Guitar Solo
131 to 137: Verse 1
138 to 143: Outro (Repeat)



Guitar1
1             2             3             4             5
|-------0-----|-------0-----|-------0-----|-------0---7-|-7-----7p0-----|
|-----0---0---|-----0---0---|-----0---0---|-----0---0---|---0-------0---|
|---0-------0-|---0-------0-|---0-------0-|---0---------|-----0-------0-|
|-------------|-------------|-------------|-------------|---------------|
|-------------|-------------|-------------|-------------|---------------|
|-0-----------|-0-----------|-0-----------|-0-----------|-0-------------|
Guitar2
1             2             3             4             5
|-------------|-------------|-------------|-------------|---------------|
|-------------|-------------|-------------|-------------|---------------|
|-------------|-------------|-------------|-------------|---------------|
|-------------|-------------|-------------|-------------|---------------|
|-------------|-------------|-------------|-------------|---------------|
|-------------|-------------|-------------|-------------|---------------|
Bass
1             2             3             4             5
|-------------|-------------|-------------|-------------|---------------|
|-------------|-------------|-------------|-------------|---------------|
|-------------|-------------|-------------|-------------|---------------|
|-------------|-------------|-------------|-------------|---------------|
Drums
1             2             3             4             5
|-------------|-------------|-------------|-------------|---------------|
|-------------|-------------|-------------|-------------|---------------|

[---] 

___________________________________________________________________________



Guitar1
6               7           8               9             
|-----7-8-7h8\5-|-7-5p3\2-0-|-------2p0-----|-------0-0-0-|
|-0---0-0-------|-0---------|-5---5-----5---|-----5---5-5-|
|---0-----------|-----------|---5---------5-|---5-----5-5-|
|---------------|-----------|---------------|-------------|
|---------------|-----------|-0-------------|-0-------0-2-|
|-0-------------|-----------|---------------|-------------|
Guitar2
6               7           8               9             
|---------------|-----------|---------------|-------------|
|---------------|-----------|---------------|-------------|
|---------------|-----------|---------------|-------------|
|---------------|-----------|---------------|-------------|
|---------------|-----------|---------------|-------------|
|---------------|-----------|---------------|-------------|
Bass
6               7           8               9             
|---------------|-----------|---------------|-------------|
|---------------|-----------|---------------|-------------|
|---------------|-----------|---------------|-------------|
|---------------|-----------|---------------|-------------|
Drums
6               7           8               9             
|---------------|-----------|---------------|-------------|
|---------------|-----------|---------------|-------------|

[---]


Guitar1
10                    11                        12
|-0---------3p0-----0-|-0---------0h5p0---------|---------12-----|
|-5-------------5---5-|-7-----7---------7p0-0h5-|---12-12----0---|
|-5-----5---------5-5-|-7---7---7---------------|---12---------0-|
|-----5---5-----------|-------------------------|----------------|
|-3-3---------------3-|-5-5---------------------|----------------|
|---------------------|-------------------------|-0--------------|
Guitar2
10                    11                        12
|---------------------|-------------------------|----------------|
|---------------------|-------------------------|----------------|
|---------------------|-------------------------|----------------|
|---------------------|-------------------------|----------------|
|---------------------|-------------------------|----------------|
|---------------------|-------------------------|----------------|
Bass
10                    11                        12
|---------------------|-------------------------|----------------|
|---------------------|-------------------------|----------------|
|---------------------|-------------------------|----------------|
|---------------------|-------------------------|----------------|
Drums
10                    11                        12  
|---------------------|-------------------------|----------------|
|---------------------|-------------------------|----------------|

[---]

___________________________________________________________________________



Guitar1
13            14            15            16          17
|-------0-----|-------0-----|-------0-----|---------7-|-------------|
|-----0---0---|-----0---0---|-----0---0---|---------8-|-----7-----5-|
|---0-------0-|---0-------0-|---0-------0-|-------9---|-----7-----5-|
|-------------|-------------|-------------|-----9-----|---7-----5---|
|-------------|-------------|-------------|---7-------|-5-----3-----|
|-0-----------|-0-----------|-0-----------|-0---------|-------------|
Guitar2
13            14            15            16          17
|-------------|-------------|-------------|-----------|-------------|
|-------------|-------------|-------------|-----------|-------------|
|-------------|-------------|-------------|-----------|-------------|
|-------------|-------------|-------------|-----------|-------------|
|-------------|-------------|-------------|-----------|-------------|
|-------------|-------------|-------------|-----------|-------------|
Bass
13            14            15            16          17
|-------------|-------------|-------------|-----------|-------------|
|-------------|-------------|-------------|-----------|-------------|
|-------------|-------------|-------------|-----------|-------------|
|-------------|-------------|-------------|-----------|-------------|
Drums
13            14            15            16          17
|-------------|-------------|-------------|-----------|-------------|
|-------------|-------------|-------------|-----------|-------------|

[---]


Guitar1
18          19            20          21            22
|---------7-|-------------|---------7-|-------------|-------------|
|---------8-|-----7-----5-|---------8-|-----7-----5-|-----3-----4-|
|-------9---|-----7-----5-|-------9---|-----7-----5-|-----4-----2-|
|-----9-----|---7-----5---|-----9-----|---7-----5---|---5-----4---|
|---7-------|-5-----3-----|---7-------|-5-----3-----|-------2-----|
|-0---------|-------------|-0---------|-------------|-3-----------| 
Guitar2
18          19            20          21            22
|-----------|-------------|---------7-|---5-----3---|---3-----2---|
|-----------|-------------|-------8---|----7-----5--|----3-----4--|
|-----------|-------------|-----9-----|-----7-----5-|-----4-----2-|
|-----------|-------------|-----------|-------------|-------------|
|-----------|-------------|-----------|-------------|-------------|
|-----------|-------------|-----------|-------------|-------------|
Bass
18          19            20          21            22
|-----------|-------------|-----------|-------------|-------------|
|-----------|-------------|-----------|-------------|-------------|
|-----------|-------------|-----------|-------------|-------------|
|-----------|-------------|-----------|-------------|-------------|
Drums
18          19            20          21            22
|-----------|-------------|-----------|-------------|-------------|
|-----------|-------------|-----------|-------------|-------------|

[---]

___________________________________________________________________________



Guitar1
23            24            25                26
|-------0-----|-------0-----|-------3---0-----|-2---3-----0---------|
|-----0---0---|-----0---0---|-----0-------0---|-------3-----3-------|
|---0-------0-|---0-------0-|---0-----0-----0-|---------0-----0-----|
|-------------|-------------|-----------------|-0-0-----------------|
|-------------|-------------|-----------------|-----------3-----3-2-|
|-0-----------|-0-----------|-0---------------|---------------------|
Guitar2
23            24            25                26
|-------------|-------------|-----------------|---------------------|
|-------------|-------------|-----------------|---------------------|
|-------------|-------------|-----------------|---------------------|
|-------------|-------------|-----------------|---------------------|
|-------------|-------------|-----------------|---------------------|
|-------------|-------------|-----------------|---------------------|
Bass
23            24            25                26
|-------------|-------------|-----------------|---------------------|
|-------------|-------------|-------2---------|-0-------------------|
|-------------|-------------|-----------------|-----------3---------|
|-------------|-------------|-0---------------|-----------------3-2-|
Drums
23            24            25                26
|-------------|-------------|-1-----3----3----|-3-3---3---3-3---3---|
|-------------|-------------|-4-----2---------|-1---------2-----1---|

                                  So close no matter how far


Guitar1
27                28                    29
|-------3---0-----|-2-------------------|-------3---0-----|
|-----0-------0---|-----3-----3---3-----|-----0-------0---|
|---0-----0-----0-|-------2-0---0-------|---0-----0-----0-|
|-----------------|-0-0-----------------|-----------------|
|-----------------|-----------3---------|-----------------|
|-0---------------|-----------------3-2-|-0---------------|
Guitar2
27                28                    29 
|-----------------|---------------------|-----------------|
|-----------------|---------------------|-----------------|
|-----------------|---------------------|-----------------|
|-----------------|---------------------|-----------------|
|-----------------|---------------------|-----------------|
|-----------------|---------------------|-----------------|
Bass
27                28                    29
|-----------------|---------------------|-----------------|
|-------2---------|-0-------------------|-------2---------|
|-----------------|-----------3---------|-----------------|
|-0---------------|-----------------3-2-|-0---------------|
Drums
27                28                    29
|-3-3-3-3-3---3---|-3-3---3---3-3---3---|-3-3-3-3-3---3---|
|-1-----2---------|-1---------2-----1---|-1-----2---------|

     Couldn't be much more from the heart    Forever trusting

___________________________________________________________________________



Guitar1
30                31              32            33
|-2---3-----3-----|-----3-0---2---|-0-----0-----|-----------0-------|
|-------3-----3---|-----3-0-----0-|-----0---0---|---------0---0-----|
|---------0-----0-|---0---2-------|---0-------0-|-----0-------------|
|-0-0-------------|---------------|-------------|-------------------|
|-----------3-----|-------2-2-----|-------------|-------------------|
|-----------------|-3-------------|-0-----------|-0-------------3-2-|
Guitar2
30                31              32            33
|-----------------|---------------|-------------|-------------------|
|-----------------|---------------|-------------|-------------------|
|-----------------|---------------|-------------|-------------------|
|-----------------|---------------|-------------|-------------------|
|-----------------|---------------|-------------|-------------------|
|-----------------|---------------|-------------|-------------------|
Bass
30                31              32            33
|-----------------|---------------|-------------|-------------------|
|-0---------------|---------------|-------2-----|-----------2-------|
|-----------3-----|-------2-------|-------------|-------------------|
|-------------3-2-|-3-------------|-0-----------|-0-0-0-0-0-----3-2-|
Drums
30                31              32            33
|-3-3---3---3-3-3-|-3-3-3-3-3---3-|-4-3-3-3-3-3-|-3-1-3-1-3-3-3-5-5-|
|-1---------2---1-|-1-----2-------|-1-----2-----|-1-------2-2-------|

  who we are            And nothing else matters


Guitar1
34                35                    36
|-------3---0-----|-2---3-----0---------|-------3---0-----|
|-----0-------0---|-------3-----3-------|-----0-------0---|
|---0-----0-----0-|---------0-----0-----|---0-----0-----0-|
|-----------------|-0-0-----------------|-----------------|
|-----------------|-----------3-----3-2-|-----------------|
|-0---------------|---------------------|-0---------------|
Guitar2
34                35                    36
|-----------------|---------------------|-----------------|
|-8---------------|-10--12----8---------|-----------------|
|-9---------------|-11--12----9---------|-----------------|
|-----------------|---------------------|-----------------|
|-----------------|---------------------|-----------------|
|-----------------|---------------------|-----------------|
Bass
34                35                    36
|-----------------|---------------------|-----------------|
|-------2---------|-0-------------------|-------2---------|
|-----------------|-----------3---------|-----------------|
|-0---------------|-----------------3-2-|-0---------------|
Drums
34                35                    36
|-4-3-3-3-3---3---|-3-3---3---3-3---3---|-3-3-3-3-3---3---|
|-1-----2---------|-1---------2-----1---|-1-----2---------|

    Never opened myself this way              Live is ours

___________________________________________________________________________



Guitar1
37                    38                39                40
|-2-------------------|-------3---0-----|-2---3-----3-----|-----3-0---2---|
|-----3-----3---3-----|-----0-------0---|-------3-----3---|-----3-0-----0-|
|-------2-0---0-------|---0-----0-----0-|---------0-----0-|---0---2-------|
|-0-0-----------------|-----------------|-0-0-------------|---------------|
|-----------3---------|-----------------|-----------3-----|-------2-2-----|
|-----------------3-2-|-0---------------|-----------------|-3-------------|
Guitar2
37                    38                39                40
|---------------------|-----------------|-----------------|---------------|
|-10--12----13--------|-12--------------|-10--12----8-----|-8-----7-------|
|-11--12----12--------|-12--------------|-11--12----9-----|---------------|
|---------------------|-----------------|-----------------|-9-------------|
|---------------------|-----------------|-----------------|---------------|
|---------------------|-----------------|-----------------|---------------|
Bass
37                    38                39                40
|---------------------|-----------------|-----------------|---------------|
|-0-------------------|-------2---------|-0---------------|---------------|
|-----------3---------|-----------------|-----------3-----|-------2-------|
|-----------------3-2-|-0---------------|-------------3-2-|-3-------------|
Drums
37                    38                39                40
|-3-3---3---3-3---3---|-3-3-3-3-3---3---|-3-3---3---3-3-3-|-3-3-3-3-3---3-|
|-1---------2-----1---|-1-----2---------|-1---------2---1-|-1-----2-------|

  we live it our way        All these words I don't just say    And nothing else


Guitar1
41            42                    43
|-0-----0-----|-----------0---------|-------3---0-----|
|-----0---0---|---------0---0-------|-----0-------0---|
|---0-------0-|-----0---------------|---0-----0-----0-|
|-------------|---------------------|-----------------|
|-------------|---------------------|-----------------|
|-0-----------|-0---------------3-2-|-0---------------|
Guitar2
41            42                    43
|-------------|---------------------|-----------------|
|-------------|---------------------|-----------------|
|-9-----------|---------------------|-----------------|
|-------------|---------------------|-----5-5\7--7/5--|
|-------------|---------------------|-----7-7\9--9/7--|
|-------------|---------------------|-----------------|
Bass
41            42                    43
|-------------|---------------------|-----------------|
|-------2-----|-----------2---------|-------2---------|
|-------------|---------------------|-----------------|
|-0-----------|-0-0-0-0-0-------3-2-|-0---------------|
Drums
41            42                    43
|-4-3-3-3-3-3-|-3-1-3-1-3-3-3-2-2-2-|-4-3-3-3-3---3---| 
|-1-----2-----|-1-------2-2---------|-1-----2---------| 

 matters                                  Trust I seek and I

___________________________________________________________________________



Guitar1
44                    45                46
|-2---3-----0---------|-------3---0-----|-2-------------------|
|-------3-----3-------|-----0-------0---|-----3-----3---3-----|
|---------0-----0-----|---0-----0-----0-|-0-0---2-0---0-------|
|-0-0-------3---------|-----------------|---------------------|
|---------------------|-----------------|-----------3---------|
|-----------------3-2-|-0---------------|-----------------3-2-|
Guitar2
44                    45                46
|---------------------|-----------------|---------------------|
|---------------------|-----------------|---------------------|
|---------------------|-----------------|---------------------|
|-4-------------------|-----5-5/7--7\5--|-4---0-----0---------|
|-5---7-----7---------|-----7-7/9--9\7--|-5-------------------|
|---------------------|-----------------|---------------------|
Bass
44                    45                46
|---------------------|-----------------|---------------------|
|-0-------------------|-------2---------|-0-------------------|
|-----------3---------|-----------------|-----------3---------|
|-----------------3-2-|-0---------------|-----------------3-2-|
Drums
44                    45                46
|-3-3---3---3-3---4---|-4-3-3-3-3---3---|-3-3---3---3-3---4---|
|-1---------2-----1---|-1-----2---------|-1---------2-----1---|

 find in you                Every day for us something new


Guitar1
47                48                49                50
|-------3---0-----|-2---3-----3-----|-------3-2---2---|-0-----0-----|
|-----0-------0---|-------3-----3---|-------3-0-----0-|-----0---0---|
|---0-----0-----0-|---------0-----0-|---0-----2-------|---0-------0-|
|-----------------|-0-0-------3-----|-----------------|-------------|
|-----------------|-----------------|---------2-2-----|-------------|
|-0---------------|-----------------|-3---------------|-0-----------|
Guitar2
47                48                49                50
|-----------------|-----------------|-----------------|-------------|
|-----------------|-----------------|-----------------|---5-7-8-7-5-|
|-----------------|-----0-----------|-----------------|-------------|
|-----5-5/7--7\5--|-4---------2-----|-0---------------|-------------|
|-----7-7/9--9\7--|-5---------3-----|-2-2-3-2---2-3-2-|-------------|
|-----------------|-----------------|-----------------|-------------|
Bass
47                48                49                50
|-----------------|-----------------|-----------------|-------------|
|-------2---------|-0---------------|-----------------|-------2-----|
|-----------------|-----------3-----|---------2-------|-------------|
|-0---------------|-------------3-2-|-3---------------|-0-----------|
Drums
47                48                49                50 
|-4-3-3-3-3---3---|-3-3---3---3-3-4-|-4-3---3-3-3---3-|-4-3-3-3-3-3-|
|-1-----2---------|-1---------2---1-|-1-------2-------|-1-----2-----|

    Open mind for a different view         And nothing else matters

___________________________________________________________________________



Guitar1
51            52                53            54
|-------5-----|-----------------|-------------|-----------------|
|-8-7-5-------|-----------------|-------------|-----------------|
|-------------|-----------------|-------------|-----------------|
|-------------|-----------------|-------------|-----------------|
|-------------|-----------------|-------------|-----------------|
|-------------|-----------------|-------------|-----------------|
Guitar2
51            52                53            54
|-0-----------|-2-2-2-2-0-2-3-2-|-0-----------|-2-2-2-2-0-2-3-2-|
|-1-----2-----|-3-3-3-3-3-3-3-3-|-1-----2-----|-3-3-3-3-3-3-3-3-|
|-0-----2-----|-2-2-2-2-2-2-2-2-|-0-----2-----|-2-2-2-2-2-2-2-2-|
|-2-----2-----|-0-0-0-0-0-0-0-0-|-2-----2-----|-0-0-0-0-0-0-0-0-|
|-3-----0-----|-----------------|-3-----0-----|-----------------|
|(C)---(A)----|(D)--------------|(C)---(A)----|(D)--------------|
Bass
51            52                53            54
|-------------|-----------------|-------------|-----------------|
|-------------|-0--0--0-0--0--0-|-------------|-0--0--0-0--0--0-|
|-3-----0-----|-----------------|-3-----0-----|-----------------|
|-------------|-----------------|-------------|-----------------|
Drums
51            52                53            54
|-4-3-3-4-3-3-|-4--3--3-3--3--3-|-4-3-3-4-3-3-|-4--3--3-3--3--3-|
|-1-----2-----|-1--6----1--6----|-1-----2-----|-1--6----1--6----|

              Never cared for what they do       Never cared for what they


Guitar1
55            56        57                58
|-------------|---------|-7--------0------|------------0--------|
|-------------|---------|-------0-----0---|---------0-----0-----|
|-------------|-------7-|-9--0----------0-|-----0-------------0-|
|------5----7-|-----7---|-----------------|---------------------|
|--3-7----7---|---5-----|-----------------|---------------------|
|--------5----|---------|-0---------------|-0-------------------|
Guitar2
55            56        57                58
|-0-----------|-2-2-2-2-|-0---------------|-----5-------------5-|
|-1-----2-----|-3-3-3-3-|-0---------------|---------8--7--8-----|
|-0-----2-----|-2-2-2-2-|-0---------------|---------------------|
|-2-----2-----|-0-0-0-0-|-2---------------|---------------------|
|-3-----0-----|---------|-2---------------|---------------------|
|(C)---(A)----|(D)------|-0---------------|---------------------|
Bass
55            56        57                58
|-------------|---------|-----------------|---------------------|
|-------------|-0--0--0-|-----------------|-2-------------------|
|-3-----0-----|---------|-----------------|---------------------|
|-------------|---------|-0---------------|------------0----3-2-|
Drums
55            56        57                58
|-4-3-3-4-3-3-|-4--3--3-|-4-3-3-3-3-2-2-2-|-3-3-2-2-2-5-5-2-2-2-|
|-1-----2-----|-1-------|-1-----2---------|-1-1-------7-7-------|
                                          |-----------1---------|
know             but I know

___________________________________________________________________________



Guitar1
59                60                    61
|-------3---0-----|-2---3-----0---------|-------3---0-----|
|-----0-------0---|-------3-----3-------|-----0-------0---|
|---0-----0-----0-|---------0-----0-----|---0-----0-----0-|
|-----------------|-0-0-----------------|-----------------|
|-----------------|-----------3-----3-2-|-----------------|
|-0---------------|---------------------|-0---------------|
Guitar2
59                60                    61
|-----------------|---------------------|-----------------|
|-5---------------|---------------------|-----------------|
|-----------------|---------------------|-----------------|
|-----------------|---------------------|-----------------|
|-----------------|---------------------|-----------------|
|-----------------|---------------------|-----------------|
Bass
59                60                    61
|-----------------|---------------------|-----------------|
|-------2---------|-0-------------------|-------2---------|
|-----------------|-----------3---------|-----------------|
|-0---------------|-----------------3-2-|-0---------------|
Drums
59                60                    61
|-3-3-3-3-3---3---|-3-3---3---3-3---3---|-3-3-3-3-3---3---|
|-1-----2---------|-1---------2-----1---|-1-----2---------|

    So close no matter how far               Couldn't be much more


Guitar1
62                    63                64                65
|-2-------------------|-------3---0-----|-2---3-----3-----|-----3-0---2---|
|-----3-----3---3-----|-----0-------0---|-------3-----3---|-----3-0-----0-|
|-------2-0---0-------|---0-----0-----0-|---------0-----0-|---0---2-------|
|-0-0-----------------|-----------------|-0-0-------------|---------------|
|-----------3---------|-----------------|-----------3-----|-------2-2-----|
|-----------------3-2-|-0---------------|-----------------|-3-------------|
Guitar2
62                    63                64                65
|---------------------|-----------------|-----------------|---------------|
|---------------------|-----------------|-----------------|---------------|
|---------------------|-----------------|-----------------|---------------|
|---------------------|-----------------|-----------------|---------------|
|---------------------|-----------------|-----------------|---------------|
|---------------------|-----------------|-----------------|---------------|
Bass
62                    63                64                65
|-----------0---------|-----------------|-----------------|---------------|
|-0-------------------|-------2---------|-0---------------|---------------|
|---------------------|-----------------|-----------3-----|-------2-------|
|-----------------3-2-|-0---------------|-------------3-2-|-3-------------|
Drums
62                    63                64                65
|-3-3---3---3-3---3---|-3-3-3-3-3---3---|-3-3---3---3-3-3-|-3-3-3-3-3---3-|
|-1---------2-----1---|-1-----2---------|-1---------2---1-|-1-----2-------|

    from the heart         Forever trusting who we are          And nothing else

___________________________________________________________________________



Guitar1
66            67            68                69
|-------0-----|-------------|-----------------|-------------|
|-----0---0---|-------------|-----------------|-------------|
|---0-------0-|-------------|-----------------|-------------|
|-------------|-------------|-----------------|-------------|
|-------------|-------------|-----------------|-------------|
|-0-----------|-------------|-----------------|-------------|
Guitar2
66            67            68                69
|-------------|-0-----------|-2-2-2-2-0-2-3-2-|-0-----------|
|-------------|-1-----2-----|-3-3-3-3-3-3-3-3-|-1-----2-----|
|-------------|-0-----2-----|-2-2-2-2-2-2-2-2-|-0-----2-----|
|-------------|-2-----2-----|-0-0-0-0-0-0-0-0-|-2-----2-----|
|-------------|-3-----0-----|-----------------|-3-----0-----|
|-------------|(C)---(A)----|(D)--------------|(C)---(A)----|
Bass
66            67            68                69
|-------------|-------------|-----------------|-------------|
|-------2-----|-------------|-0--0--0-0--0--0-|-------------|
|-------------|-3-----0-----|-----------------|-3-----0-----|
|-0-----------|-------------|-----------------|-------------|
Drums
66            67            68                69
|-4-3-3-3-3-3-|-4-3-3-4-3-3-|-4--3--3-3--3--3-|-4-3-3-4-3-3-|
|-1-----2-----|-1-----2-----|-1--6----1--6----|-1-----2-----|

matters                      Never cared for what they do


Guitar1
70                71            72        73
|-----------------|-------------|---------|---------0-------|
|-----------------|-------------|---------|------0-----0----|
|-----------------|-------------|-------7-|-9-0-----------0-|
|-----------------|------5----7-|-----7---|-----------------|
|-----------------|--3-7----7---|---5-----|-----------------|
|-----------------|--------5----|---------|-0---------------|
Guitar2
70                71            72        73
|-2-2-2-2-0-2-3-2-|-0-----------|-2-2-2-2-|-0---------------|
|-3-3-3-3-3-3-3-3-|-1-----2-----|-3-3-3-3-|-0---------------|
|-2-2-2-2-2-2-2-2-|-0-----2-----|-2-2-2-2-|-0-------12------|
|-0-0-0-0-0-0-0-0-|-2-----2-----|-0-0-0-0-|-2---------------|
|-----------------|-3-----0-----|---------|-2---------------|
|(D)--------------|(C)---(A)----|(D)------|-0---------------|
Bass
70                71            72        73
|-----------------|-------------|---------|-----------------|
|-0--0--0-0--0--0-|-------------|-0--0--0-|-----------------|
|-----------------|-3-----0-----|---------|-----------------|
|-----------------|-------------|---------|-0---------------|
Drums
70                71            72        73
|-4--3--3-3--3--3-|-4-3-3-4-3-3-|-4--3--3-|-4-3-3-3-3-2-2-2-|
|-1--6----1--6----|-1-----2-----|-1-------|-1-----2---------|

  Never cared for what they know   But I know

___________________________________________________________________________



Guitar1
74                75            76            77            78
|----------0------|-12----14----|-15----17----|-8-----8-----|------8------|
|-------0-----0---|---12----12--|---12----12--|---5-----5---|----5---5----|
|----0----------0-|-------------|-------------|-----5-----5-|--5-------5--|
|-----------------|-------------|-------------|-------------|-------------|
|-----------------|-------------|-------------|-------------|-------------|
|-0---------------|-------------|-------------|-------------|-------------|
Guitar2
74                75            76            77            78
|-----------------|-15----17----|-19----20----|-12----------|-------------|
|-------12----15--|---17----17--|---17----17--|---13--------|-------------|
|-14--------------|-------------|-------------|-------------|-------------|
|-----------------|-------------|-------------|-------------|-------------|
|-----------------|-------------|-------------|-------------|-------------|
|-----------------|-------------|-------------|-------------|-------------|
Bass
74                75            76            77            78
|-----------------|-------------|-------------|-------------|-------------|
|-2---------------|-------------|--2-2-2--2---|-------------|-------------|
|-----------------|--2-2-2-2-2-2|-----------2-|-0----------0|-0---------0-|
|---------0----3-2|-0-----0-----|-0-----0-----|-------------|-------------|
Drums
74                75            76            77            78
|-7-7-2-7-5-5-2-5-|-4-3-3-3-3-3-|-3-3-3-3-3-3-|-4-3-3-3-3-3-|-3-3-3-3-3-3-|
|-2-------2-------|-1-----8-----|-1-----8-----|-1-----8-----|-1-----8-----|

[---]


Guitar1
79              80              81                  82
|-0-------0-----|-0-------0-----|-0-7------7-0------|-------0-----------|
|---1-------1---|---3-------3---|-----0--------0----|-----0-------------|
|-----0---------|-----2---------|--------0-------0--|---0---------------|
|---------------|---------------|-------------------|-------------------|
|---------------|---------------|-------------------|-------------------|
|---------------|---------------|-------------------|-0-----------------|
Guitar2
79              80              81                  82
|-11/12---------|-12/14---------|---12-----12-------|-------------------|
|------13-------|------15-------|-12---------12-----|-------------------|
|--------12-----|--------14-----|-------------------|-------------------|
|---------------|---------------|-------------------|-------------------|
|---------------|---------------|-------------------|-------------------|
|---------------|---------------|-------------------|-------------------|
Bass
79              80              81                  82
|---------------|---------------|-------------------|-------------------|
|---------------|-0-----0-0-0-2-|-------2-------2---|-------------------|
|-3-----3-3-2-3-|---------------|-------------------|-------------------|
|---------------|---------------|-0-------0---0-----|-0-----------0-3-2-|
Drums
79              80              81                  82
|-4-3-3-3-3-3---|-3-3-3-3-3-3---|-4-3-3-3-1-3-1-3-2-|-3-3-3-3-1-3-1-3---|
|-1-----8-------|-1-----8-------|-1-----2-----------|-2---2-2-------2---|

[---]

___________________________________________________________________________



Guitar1
83            84            85            86                87
|-12----14----|-15----17----|-8-----8-----|------8----------|-0-------0---|
|---12----12--|---12----12--|---5-----5---|----5-----5------|---1-------1-|
|-------------|-------------|-----5-----5-|--5-----------5--|-----0-------|
|-------------|-------------|-------------|-----------------|-------------|
|-------------|-------------|-------------|-----------------|-------------|
|-------------|-------------|-------------|-----------------|-------------|
Guitar2
83            84            85            86                87 
|-15----17----|-19----20----|-12----------|-----------------|11/12--------|
|---17----17--|---17----17--|---13--------|-----------------|----13-------|
|-------------|-------------|-------------|-----------------|-----12------|
|-------------|-------------|-------------|-----------------|-------------|
|-------------|-------------|-------------|-----------------|-------------|
|-------------|-------------|-------------|-----------------|-------------|
Bass
83            84            85            86                87
|-------------|-------------|-------2-----|-----------------|-------------|
|-------------|--2-2-2--2---|-----------2-|-----------------|-------------|
|--2-2-2-2-2-2|-----------2-|-0-----------|-0------------0-2|-3----3-3-2-3|
|-0-----0-----|-0-----0-----|-------------|-----------------|-------------|
Drums
83            84            85            86                87
|-4-3-3-3-3-3-|-3-3-3-3-3-3-|-4-3-3-3-3-3-|-3-3-3-9-9-9-9-9-|-4-3-3-3-3-3-|
|-1-----8-----|-1-----8-----|-1-----8-----|-1-----2---------|-1-----2-----|

[---]


Guitar1
88                    89                90
|-0-----------0-------|-0-7-----7-0-----|-----------0-------------|
|--3--------------3---|-----0-------0---|-------0-----------------|
|------2--------------|-------0-------0-|---0---------------------|
|---------------------|-----------------|-------------------------|
|---------------------|-----------------|-------------------------|
|---------------------|-----------------|-0-----------------------|
Guitar2
88                    89                90
|---------------------|-----------------|-------------------------|
|---------------------|---12----12------|---15-15--15-------------|
|--12--12h14--12h14-14|-12--------14----|---14-14b-14b-12------12-|
|---------------------|-----------------|---------------14-12h14--|
|---------------------|-----------------|-------------------------|
|---------------------|-----------------|-------------------------|
Bass
88                    89                90
|-----------2-------0-|-----------------|-------------------------|
|-0-----------0-------|-2-------------2-|-2-----------------------|
|---------------------|-----------------|-------------------------|
|---------------------|---------0-------|-----------0--------3--2-|
Drums
88                    89                90
|-4-3--3----3-3-----3-|-4---3-3-3---3-3-|-3-3-2-2-2-3--0--0--0--0-|
|-1---------2---------|-1-------2-----2-|-2-----------------------|

[---]

___________________________________________________________________________



91                92                    93
|-------3---0-----|-2---3-----0---------|-------3---0-----|
|-----0-------0---|-------3-----3-------|-----0-------0---|
|---0-----0-----0-|---------0-----0-----|---0-----0-----0-|
|-----------------|-0-0-----------------|-----------------|
|-----------------|-----------3-----3-2-|-----------------|
|-0---------------|---------------------|-0---------------|
Guitar2
91                92                    93
|-----------------|---------------------|-----------------|
|-8---------------|-10--12----8---------|-----------------|
|-9---------------|-11--12----9---------|-----------------|
|-----------------|---------------------|-----------------|
|-----------------|---------------------|-----------------|
|-----------------|---------------------|-----------------|
Bass
91                92                    93
|-----------------|---------------------|-----------------|
|-------2---------|-0-------------------|-------2---------|
|-----------------|-----------3---------|-----------------|
|-0---------------|-----------------3-2-|-0---------------|
Drums
91                92                    93
|-4-3-3-3-3---3---|-3-3---3---3-3---3---|-3-3-3-3-3---3---|
|-1-----2---------|-1---------2-----1---|-1-----2---------|

    Never opened myself this way             Live is ours



Guitar1
94                    95                96                97
|-2-------------------|-------3---0-----|-2---3-----3-----|-----3-0---2---|
|-----3-----3---3-----|-----0-------0---|-------3-----3---|-----3-0-----0-|
|-------2-0---0-------|---0-----0-----0-|---------0-----0-|---0---2-------|
|-0-0-----------------|-----------------|-0-0-------------|---------------|
|-----------3---------|-----------------|-----------3-----|-------2-2-----|
|-----------------3-2-|-0---------------|-----------------|-3-------------|
Guitar2
94                    95                96                97
|---------------------|-----------------|-----------------|---------------|
|-10--12----13--------|-12--------------|-10--12----8-----|-8-----7-------|
|-11--12----12--------|-12--------------|-11--12----9-----|---------------|
|---------------------|-----------------|-----------------|-9-------------|
|---------------------|-----------------|-----------------|---------------|
|---------------------|-----------------|-----------------|---------------|
Bass
94                    95                96                97
|---------------------|-----------------|-----------------|---------------|
|-0-------------------|-------2---------|-0---------------|---------------|
|-----------3---------|-----------------|-----------3-----|-------2-------|
|-----------------3-2-|-0---------------|-------------3-2-|-3-------------|
Drums
94                    95                96                97
|-3-3---3---3-3---3---|-3-3-3-3-3---3---|-3-3---3---3-3-3-|-3-3-3-3-3---3-|
|-1---------2-----1---|-1-----2---------|-1---------2---1-|-1-----2-------|

  we live it our way     All these words I don't just say      And nothing else

___________________________________________________________________________



Guitar1
98            99                    100
|-0-----0-----|-----------0---------|-------3---0-----|                   
|-----0---0---|---------0---0-------|-----0-------0---|
|---0-------0-|-----0---------------|---0-----0-----0-|
|-------------|---------------------|-----------------|
|-------------|---------------------|-----------------|
|-0-----------|-0---------------3-2-|-0---------------|
Guitar2
98            99                    100
|-------------|---------------------|-----------------|
|-------------|---------------------|-----------------|
|-9-----------|---------------------|-----------------|
|-------------|---------------------|-----5-5\7--7/5--|
|-------------|---------------------|-----7-7\9--9/7--|
|-------------|---------------------|-----------------|
Bass
98            99                    100
|-------------|---------------------|-----------------|
|-------2-----|-----------2---------|-------2---------|
|-------------|---------------------|-----------------|
|-0-----------|-0-0-0-0-0-------3-2-|-0---------------|
Drums
98            99                    100
|-4-3-3-3-3-3-|-3-1-3-1-3-3-3-2-2-2-|-4-3-3-3-3---3---| 
|-1-----2-----|-1-------2-2---------|-1-----2---------| 

  matters                                Trust I seek and I


Guitar1
101                   102               103
|-2---3-----0---------|-------3---0-----|-2-------------------|
|-------3-----3-------|-----0-------0---|-----3-----3---3-----|
|---------0-----0-----|---0-----0-----0-|-0-0---2-0---0-------|
|-0-0-------3---------|-----------------|---------------------|
|---------------------|-----------------|-----------3---------|
|-----------------3-2-|-0---------------|-----------------3-2-|
Guitar2
101                   102               103
|---------------------|-----------------|---------------------|
|---------------------|-----------------|---------------------|
|---------------------|-----------------|---------------------|
|-4-------------------|-----5-5/7--7\5--|-4---0-----0---------|
|-5---7-----7---------|-----7-7/9--9\7--|-5-------------------|
|---------------------|-----------------|---------------------|
Bass
101                   102               103
|---------------------|-----------------|---------------------|
|-0-------------------|-------2---------|-0-------------------|
|-----------3---------|-----------------|-----------3---------|
|-----------------3-2-|-0---------------|-----------------3-2-|
Drums
101                   102               103
|-3-3---3---3-3---4---|-4-3-3-3-3---3---|-3-3---3---3-3---4---|
|-1---------2-----1---|-1-----2---------|-1---------2-----1---|

  find in you               Every day for us something new

___________________________________________________________________________



Guitar1
104               105               106               107
|-------3---0-----|-2---3-----3-----|-------3-2---2---|-0-----0-----|
|-----0-------0---|-------3-----3---|-------3-0-----0-|-----0---0---|
|---0-----0-----0-|---------0-----0-|---0-----2-------|---0-------0-|
|-----------------|-0-0-------3-----|-----------------|-------------|
|-----------------|-----------------|---------2-2-----|-------------|
|-0---------------|-----------------|-3---------------|-0-----------|
Guitar2
104               105               106               107
|-----------------|-----------------|-----------------|-------------|
|-----------------|-----------------|-----------------|-------------|
|-----------------|-----0-----------|-----------------|-------------|
|-----5-5/7--7\5--|-4---------2-----|-0---------------|-------------|
|-----7-7/9--9\7--|-5---------3-----|-2-2-3-2---2-3-2-|-------------|
|-----------------|-----------------|-----------------|-------------|
Bass
104               105               106               107
|-----------------|-----------------|-----------------|-------------|
|-------2---------|-0---------------|-----------------|-------2-----|
|-----------------|-----------3-----|---------2-------|-------------|
|-0---------------|-------------3-2-|-3---------------|-0-----------|
Drums
104               105               106               107     
|-4-3-3-3-3---3---|-3-3---3---3-3-4-|-4-3---3-3-3---3-|-4-3-3-3-3-3-|
|-1-----2---------|-1---------2---1-|-1-------2-------|-1-----2-----|

    Open mind for a different view         And nothing else matters


Guitar1
108           109               110           111
|-------------|-----------------|-------------|-----------------|
|-------------|-----------------|-------------|-----------------|
|-------------|-----------------|-------------|-----------------|
|-------------|-----------------|-------------|-----------------|
|-------------|-----------------|-------------|-----------------|
|-------------|-----------------|-------------|-----------------|
Guitar2
108           109               110           111
|-0-----------|-2-2-2-2-0-2-3-2-|-0-----------|-2-2-2-2-0-2-3-2-|
|-1-----2-----|-3-3-3-3-3-3-3-3-|-1-----2-----|-3-3-3-3-3-3-3-3-|
|-0-----2-----|-2-2-2-2-2-2-2-2-|-0-----2-----|-2-2-2-2-2-2-2-2-|
|-2-----2-----|-0-0-0-0-0-0-0-0-|-2-----2-----|-0-0-0-0-0-0-0-0-|
|-3-----0-----|-----------------|-3-----0-----|-----------------|
|(C)---(A)----|(D)--------------|(C)---(A)----|(D)--------------|
Bass
108           109               110           111
|-------------|-----------------|-------------|-----------------|
|-------------|-0--0--0-0--0--0-|-------------|-0--0--0-0--0--0-|
|-3-----0-----|-----------------|-3-----0-----|-----------------|
|-------------|-----------------|-------------|-----------------|
Drums
108           109               110           111
|-4-3-3-4-3-3-|-4--3--3-3--3--3-|-4-3-3-4-3-3-|-4--3--3-3--3--3-|
|-1-----2-----|-1--6----1--6----|-1-----2-----|-1--6----1--6----|

                 Never cared for what they say    Never cared for games they

___________________________________________________________________________



Guitar1
112           113               114           115
|-------------|-----------------|-------------|-----------------|
|-------------|-----------------|-------------|-----------------|
|-------------|-----------------|-------------|-----------------|
|-------------|-----------------|-------------|-----------------|
|-------------|-----------------|-------------|-----------------|
|-------------|-----------------|-------------|-----------------|
Guitar2
112           113               114           115
|-0-----------|-2-2-2-2-0-2-3-2-|-0-----------|-2-2-2-2-0-2-3-2-|
|-1-----2-----|-3-3-3-3-3-3-3-3-|-1-----2-----|-3-3-3-3-3-3-3-3-|
|-0-----2-----|-2-2-2-2-2-2-2-2-|-0-----2-----|-2-2-2-2-2-2-2-2-|
|-2-----2-----|-0-0-0-0-0-0-0-0-|-2-----2-----|-0-0-0-0-0-0-0-0-|
|-3-----0-----|-----------------|-3-----0-----|-----------------|
|(C)---(A)----|(D)--------------|(C)---(A)----|(D)--------------|
Bass
112           113               114           115
|-------------|-----------------|-------------|-----------------|
|-------------|-0--0--0-0--0--0-|-------------|-0--0--0-0--0--0-|
|-3-----0-----|-----------------|-3-----0-----|-----------------|
|-------------|-----------------|-------------|-----------------|
Drums
112           113               114           115
|-4-3-3-4-3-3-|-4--3--3-3--3--3-|-4-3-3-4-3-3-|-4--3--3-3--3--3-|
|-1-----2-----|-1--6----1--6----|-1-----2-----|-1--6----1--6----|

play             Never cared for what they do    Never cared for what they

Guitar1
116           117       118           119
|-------------|---------|-------0-----|-------------0-----------|
|-------------|---------|-----0---0---|---------0-------0-------|
|-------------|-------7-|---0-------0-|-----0---------------0---|
|------5----7-|-----7---|-------------|-------------------------|
|--3-7----7---|---5-----|-------------|-------------------------|
|--------5----|---------|-0-----------|-0-----------------------|
Guitar2
116           117       118               119
|-0-----------|-2-2-2-2-|-0-----------|-------------5-----------|
|-1-----2-----|-3-3-3-3-|-0-----7-----|-8-----------------------|
|-0-----2-----|-2-2-2-2-|-0-----------|-------------------------|
|-2-----2-----|-0-0-0-0-|-2-----------|-------------------------|
|-3-----0-----|---------|-2-----------|-----------------2---2---|
|(C)---(A)----|(D)------|-0-----------|-----0-0-0-0-----0---0---|
Bass
116           117       118           119
|-------------|---------|-------------|-------------------------|
|-------------|-0--0--0-|-------------|-------------------------|
|-3-----0-----|---------|-------------|-------------------------|
|-------------|---------|-0-----------|-0-0-0-0-0-0-0-0-0-0-0-0-|
Drums
116           117       118           119
|-4-3-3-4-3-3-|-4--3--3-|-4-3-3-3-3-3-|-0-0-0-0-0-0-0-0-0-0-0-0-|
|-1-----2-----|-1-------|-1-----2-2-2-|-2-2-2-2-2-2-2-2-2-2-2-2-|
                                          
know            and I know                         yeheah

___________________________________________________________________________



Guitar1
120               121                           122
|-----------------|-----------------------------|----12---12--------------|
|-15--------------|-----------------------------|--12---12--15p12--12-----|
|-14b14b12v-14-12-|-11h12p11--11-------12-14-12-|14b--14b--------15--15-14|
|-----------------|---------14--12-14v----------|-------------------------|
|-----------------|-----------------------------|-------------------------|
|-----------------|-----------------------------|-------------------------|
Guitar2
120               121                           122
|-----------------|-----------------------------|-------------------------|
|-----------------|-----------------------------|-------------------------|
|-----------------|-----------------------------|-------------------------|
|-------9---9-----|-7---------7----5------------|-----------9--------9----|
|-2-2/7-7---7-----|-5---------5----3------------|-2-----2/7-7--------7----|
|-0---------------|-------------------------3-2-|-0-----------------------|
Bass
120               121                           122
|-----------------|-----------------------------|-------------------------|
|-------2---2-----|-0---------0-----------------|-----------2---------2---|
|-----------------|----------------3------------|-------------------------|
|-0-0-------------|-------------------------3-2-|-0-----0-----------------|
Drums
120               121                           122
|-4-3-3-3-3-3-----|-3----3----3----3-3-2----2-2-|-4--3--3---4---3--1--3---|
|-1-----2---------|-1--------------2------------|-1---------2---------2---|

[---]


Guitar1
123               124                      125
|-----------------|-14/15-14v-15-14v-15/17-|-15-14h15p14\12--15-14--------|
|-----14-14-13----|----------12------------|----------------12---12-------|
|-12b-14-14-13-12-|------------------------|----------------------12-14-12|
|---14------------|------------------------|------------------------------|
|-----------------|------------------------|------------------------------|
|-----------------|------------------------|------------------------------|
Guitar2
123               124                      125
|-----------------|------------------------|------------------------------|
|-----------------|------------------------|------------------------------|
|-----------------|------------------------|------------------------------|
|-7---7-----5-----|--------------9---9-----|-7-----------7-------5--------|
|-5---5-----3-----|-2--------2/7-7---7-----|-5-----------5-------3--------|
|-------------3-2-|-0----------------------|--------------------------3-2-| 
Bass
123               124                      125
|-----------------|------------------------|------------------------------|
|-0---0-----------|--------------2---2-----|-0-----------0----------------|
|-----------3-----|------------------------|---------------------3--------|
|-------------3-2-|-0--------0-------------|--------------------------3-2-|
Drums
123               124                      125
|3-3-1-3-3-3-2-7-7|-4--3--3--4---3-2-7-----|-7-------7-2-7-------5-2-5----|
|2-----2-2--------|-1--------2-------------|-2-----------2----------------|

[---]

___________________________________________________________________________



Guitar1
126                         127      128      129           130
|---------------12----------|--------|--------|-------------|--------|
|-15----------12--15-15b-12-|-15b----|--------|12h15p12-\-7-|\5h7p5--|
|-14b12--12-14b-------------|--------|--------|-------------|--------|
|------14-------------------|--------|--------|-------------|--------|
|---------------------------|--------|--------|-------------|--------|
|---------------------------|--------|--------|-------------|--------|
Guitar2
126                         127      128      129           130
|---------------------------|----0---|----0---|-------0-----|----0---|
|---------------------------|---0-0--|---0-0--|-----0---0---|---0-0--|
|---------------------------|--0---0-|--0---0-|---0-------0-|--0---0-|
|---------------4-----------|--------|--------|-------------|--------|
|-5-------------2-----------|-2------|--------|-------------|--------|
|-3-------------------------|-0------|-0------|-0-----------|-0------|
Bass
126                         127      128      129           130
|---------------------------|--------|--------|-------------|--------|
|---------------------------|--------|--------|-------------|--------|
|---------------2-----------|--------|--------|-------------|--------|
|-3---------------------0---|-0------|--------|-------------|--------|
Drums
126                         127      128      129           130
|-4----3----3---4---3---4---|-4------|--------|-------------|--------|
|-2-------------2-------1---|-1------|--------|-------------|--------|

[---]


Guitar1
131            132                  133            134
|--------------|-2---3-----0--------|--------------|-2-3------------------|
|--------------|--------------------|--------------|----------3-----------|
|--------------|--------------------|--------------|----------------------|      
|--------------|--------------------|--------------|----------------------|
|--------------|--------------------|--------------|----------------------|
|--------------|--------------------|--------------|----------------------|
Guitar2
131            132                  133            134
|-------3--0---|-2---3-----0--------|-------3--0---|-2-------------------|
|-----0-----0--|-------3-----3------|-----0-----0--|-----3-----3---3-----|
|---0-----0--0-|---------0-----0----|---0-----0--0-|-------2p0---0-------|
|--------------|-0-0----------------|--------------|-0-0-----------------|
|--------------|-----------3--------|--------------|-----------3---------|
|-0------------|----------------3-2-|-0------------|-----------------3-2-|
Bass
131            132                  133            134
|--------------|--------------------|--------------|---------------------|
|--------------|--------------------|--------------|---------------------|
|--------------|--------------------|--------------|---------------------|
|--------------|--------------------|--------------|---------------------|
Drums
131            132                  133            134
|--------------|--------------------|--------------|---------------------|
|--------------|--------------------|--------------|---------------------|

   So close no matter how far            Couldn't be much more from the heart

___________________________________________________________________________



Guitar1
135            136               137         138           139
|--------------|-2---3-----7-----|-----------|-0-----0-----|-------0---7-|
|--------------|-----------------|-----------|-----0---0---|-----0---0---|
|--------------|-----------------|-----------|---0-------0-|---0---------|
|--------------|-----------------|-----------|-------------|-------------|
|--------------|-----------------|-----------|-------------|-------------|
|--------------|-----------------|-----------|-0-----------|-0-----------|
Guitar2
135            136               137         138           139
|-------3--0---|-2---3-----3-----|-----3-0-2-|-------------|-------------|
|-----0-----0--|-------3-----3---|-----3-0-0-|-------------|-------------|
|---0-----0--0-|---------0-----0-|---0---2-2-|-------------|-------------|
|--------------|-0-0-------3-----|-----------|-------------|-------------|
|--------------|-----------------|-------2-2-|-------------|-------------|
|-0------------|-----------------|-3---------|-------------|-------------|
Bass
135            136               137         138           139
|--------------|-----------------|-----------|-------------|-------------|
|--------------|-----------------|-----------|-------------|-------------|
|--------------|-----------------|-----------|-------------|-------------|
|--------------|-----------------|-----------|-------------|-------------|
Drums
135            136               137         138           139
|--------------|-----------------|-----------|-------------|-------------|
|--------------|-----------------|-----------|-------------|-------------|

    Forever trusting who we are       No Nothing Else Matters


Guitar1
140             141             142
|-7-----7p0-----|-----7-8-7h8\5-|-7-5\3-0-| Repeat from bar 138 to 142
|---0-------0---|-----0-0-------|-0-------| around 3 times. Fade out.
|-----0-------0-|---0-----------|---------|
|---------------|---------------|---------|
|---------------|---------------|---------|
|-0-------------|-0-------------|---------|
Guitar2
140             141             142
|---------------|---------------|---------|
|---------------|---------------|---------|
|---------------|---------------|---------|
|---------------|---------------|---------|
|---------------|---------------|---------|
|---------------|---------------|---------|
Bass
140             141             142
|---------------|---------------|---------|
|---------------|---------------|---------|
|---------------|---------------|---------|
|---------------|---------------|---------|
Drums
140             141             142
|---------------|---------------|---------|
|---------------|---------------|---------|

[---]

___________________________________________________________________________
								        END





Comments


Popular Metallica tabs & chords
Disposable Heroes 3 Bass Tabs
Anestheia Tabs
Eye Of The Beholder Tabs
Holier Than Thou 2 Tabs
Killing Time 1 Tabs
Mama Said 1 Tabs
Motor Breath Tabs
The God That Failed 2 Tabs
The House Jack Built Tabs
The Unforgiven I Tabs


Song lyrics



↑ Back to top | Tablatures and chords are parodies/interpretations of the original songs. You may use it for private study, scholarship, research or language learning purposes only
© 2014 AZChords.com Contact us | Privacy policy | DMCA | Add/correct tabs | Request tabs | Top 50 tabs