» » »

Nothing Eles Matters Tabs (ver.5)

Artists:  A B C D E F G H I J K L M N O P Q R S T U V W X Y Z # 

Nothing Eles Matters Tabs (ver.5)

Metallica
Rating:
0/5 (0 votes)

Tabs too difficult? Try these video lessons and learn fast.
                "Nothing Else matters" by Metallica
Mark of the Heretic
The Intro is damn near right one i just change some minor things for me.  
Also play it straight through i just had to spread it out on paper.
The Verse and Chorus i totally changed because i don't like to pick and 
sing at the same time.  So those are just strummed.

Notation
h= hammer on
p= Pull off
/= Slide into note
()= natural harmonics



Intro(i use fingerstyle but you can do it with a pick)
|-------------0---------|	|-----7--7--7p0--7-8--7h8/5-7----------|
|----------0-----0------|	|-----------0----0-0--------0----------|
|-------0-----------0---|X 3	|--------------------------------------|(continue to next line)
|-----------------------|	|--------------------------------------|
|-----------------------|	|--------------------------------------|
|--0--------------------|	|--------------------------------------|


|--5p3/2---------------2p0--------------------------3p0----------------|
|--------5----------5-------5----5--5--5-------5--------5----5--7------|
|----------------5------------5--5--5--5-----5---5--------5--5--7------|
|----------------------------------------------------------------------|(continue)
|-------------0------------------0--2--3--3------------------3--5------|
|----------------------------------------------------------------------|


		     	    	
|----------0h5-----------------------(12)--------------------(7)---------|
|-----7--------7p0--0h5-----------(12)--(12)-------------(7)-----(7)-----|
|---7---7----------------------(12)--------(12)-------(7)-----------(7)--|
|------------------------------------------------------------------------|(continue)
|-5----------------------------------------------------------------------|
|---------------------------0----------------------0---------------------|

end of intro
|----------(5)------------------------------------|
|-------(5)---(5)---------------------------------|
|----(5)---------(5)------------------------------|
|-------------------------------------------------|
|-------------------------------------------------|
|-0-----------------------------------------------|


Verse

I just play these chords in sequence.

Em, D, Dsus4, Cadd9						C, A;

|--0----2---3--3-------|	Chords for Chorus	|---0----0-----------------------------	
|--0----3---3--3-------|				|---1----2-----------------------------
|--0----2---2--0-------|				|---0----2-----------------------------
|--2----0---0--2-------|				|---2----2-----------------------------
|--2-----------3-------|				|---3----0-----------------------------
|--0-------------------|				|---0---------------------------------


After i play those chords i play this and then start it over again.

Fig.1
E |-----3--2--0----|

Now you do that 2 times then on the third you play the chord but end these chords intstead of fig 1.

G, Cm(barred), Em(end directly on this chord)

Chorus

I use these chords.

C, A, D(strum and throw a Dsus4) into it.

I Do have a Solo but it's my own and don't give that stuff out.

Enjoy Fellow AXERS.
            
Tabs too difficult? Try these video lessons and learn fast.




comments powered by Disqus
↑ Back to top | Tablatures and chords are parodies/interpretations of the original songs. You may use it for private study, scholarship, research or language learning purposes only