» » »

Nothing Eles Matters Tabs (ver.10)

Artists:  A B C D E F G H I J K L M N O P Q R S T U V W X Y Z # 

Nothing Eles Matters Tabs (ver.10)

Metallica
Rating:
0/5 (0 votes)

Hard to play? Try these video lessons and learn fast.
                This tab is not 100% correct but most of it sounds
right but if you do have any corrections please email

---------------------------------------|-------------14----14-----------------
-14-12h14p12-10--12-10--9-10-9--7-9-5-7|-12-14-12-14----14----14/15-12--14-14-
---------------------------------------|--------------------------------------
---------------------------------------|--------------------------------------
---------------------------------------|--------------------------------------
---------------------------------------|--------------------------------------
                                                                              

------------------|--15-14----15-14-17--15-14h15p14-----15-14---|-------------
-14\12-14-14\12-10|--------12-----------------------12--------12|-10-12-10----
------------------|---------------------------------------------|-------------
------------------|---------------------------------------------|-------------
------------------|---------------------------------------------|-------------
------------------|---------------------------------------------|-------------
                                                                              

-----------------------------16-14h16p14-16-----------------------------------
-12/13--------12-14-12-14/16--------------------------------------------------
-------12h14------------------------------------------------------------------
            
Hard to play? Try these video lessons and learn fast. | Correct




comments powered by Disqus
↑ Back to top | Tablatures and chords are parodies/interpretations of the original songs. You may use it for private study, scholarship, research or language learning purposes only