>
 >
Nothing Eles Matters

Nothing Eles Matters Bass Tabs

Metallica - Nothing Eles Matters chords, tabs, tablatures, lyrics

Guitar lessons | Add/correct | Request | Top 50 tabs Artists:  A B C D E F G H I J K L M N O P Q R S T U V W X Y Z 0-9

Nothing Eles Matters Bass Tabs – Metallica

CD, Sheet music, Poster

Do you like Nothing Eles Matters? Share with your friends now
Bass Tabs
Band-Metallica
Album-Black
Song-Nothing Else Matters

Bass Fig 1-

E--0------------8r------------3-2-----------
A-------7r-----------------------------------
D--------------------------------------------
G--------------------------------------------

Repeat as many times as necessary.

Bass Fig 2-

E----------------------------------------------3---000000000---
A---3--0--5r---------3--0--5r-----------3-0----2---------------
D-------------------------------------------------------------------
G ------------------------------------------------------------------

Repeat Bass Fig 1
Bass Fig 3 

E--0-----------0-------------0-----------0------7\5---
A-----7---7-7-----7---7-7-----7--7-7-----7---------
D-------------------------------------------------------
G-------------------------------------------------------

Bass Fig 4-

E-------5-5----5-\8----8-8------------------------
A-------------------------------5\7---7-77\8---
D----------------------------------------------------
G----------------------------------------------------



Bass Fig 5-

E--0--------0--0--0--0--------3--2----
A-------7----------------7\--------------
D----------------------------------------
G----------------------------------------

Bass Fig 6-

E----------5----5--78---8-8--------------------------------------
A------7---------------------------5\7-----------5-------------7----
D--7----------------------------------------7-----------5------------
G----------------------------------------------------------------------

Bass Fig 9-

E0----------------------------0-0-0-0-0-0-0-0-0-0-0-0----
A----------------7------------------------------------------------
D-----------------------------------------------------------------
G-----------------------------------------------------------------

Guitar solo-

E--0-------------8----------------3-2-0----------
A------7-----5-------------------------------------
D---------------------------------------------------
G---------------------------------------------------
Repeat as many times as needed.

Play this the last time you play the guitar solo part

E0-----------8-----------------3-2-3-------0----
A-----7-----5-----------------------------2---------
D-----------------------------------------------------
G-----------------------------------------------------


Quentin Fortune. ;)





Comments


Popular Metallica tabs & chords
Black Night 3 Bass Tabs
Blackened Bass Tabs
Cunning Stunts 2 Bass Tabs
For Whom The Bell Tones Bass Tabs
St. Anger 1 Bass Tabs
Better Than You 1 Tabs
For Whom The Bell Tolls 2 Tabs
Master Of Puppets Riff Tabs
Nothing Else Matters 6 Tabs
Trapped Under Ice Tabs


Song lyrics



↑ Back to top | Tablatures and chords are parodies/interpretations of the original songs. You may use it for private study, scholarship, research or language learning purposes only
© 2014 AZChords.com Contact us | Privacy policy | DMCA | Add/correct tabs | Request tabs | Top 50 tabs