» » »

Metallica, No Leaf Clover Orchestra Tabs (ver.1)

Artists:  A B C D E F G H I J K L M N O P Q R S T U V W X Y Z # 

No Leaf Clover Orchestra Tabs (ver.1)

Metallica Tabs
Rating:
0/5 (0 votes)
Hard to play? Try these video lessons and learn fast.
                ---------------------------|--------------------------|-----------------------
---------------------------|--------------------------|-----------------------
---------------------------|--------------------------|-----------------------
-2-2-2--2--2-2-2--2-2-2-5b-|-2-2-2--2--2-2-2--2-2-2-3-|-----------------------
-2-2-2--2--2-2-2--2-2-2-5b-|-2-2-2--2--2-2-2--2-2-2-3-|-----------------------
-0-0-0--0--0-0-0--0-0-0-3b-|-0-0-0--0--0-0-0--0-0-0-1-|-----------------------
                                                                              

-2-2-2--2--2-2-2--2-2-2-------------------------------------------------------
-2-2-2--2--2-2-2--2-2-2----2----2----2----------------------------------------
-0-0-0--0--0-0-0--0-0-0-3b-0-3b-0-3b-0----------------------------------------
            

comments powered by Disqus
↑ Back to top | Metallica Tabs for No Leaf Clover Orchestra. Lyrics for acoustic guitar and electric guitar. Tablatures and chords are parodies/interpretations of the original songs. You may use it for private study, scholarship, research or language learning purposes only