» » »

Metallica, No Leaf Clover Tabs (ver.2)

Artists:  A B C D E F G H I J K L M N O P Q R S T U V W X Y Z # 

No Leaf Clover Tabs (ver.2)

Metallica Tabs
 Rating:
4/5 (4 votes)
No Leaf Clover lessons Tabs too difficult? Try these video lessons and learn fast
                This is my first posting so expect Kirk Hammet or anything

	Intro

-7--7--8---8---7--7--8---8---|-7--7--8---8---7--7------------|----------------
-8--8--10--10--7--7--10--10--|-8--8--10--10--7--7--7-10-7-10-|----------------
--9--9---9---9--8--8---9---9-|--9--9---9---9--8--8----8------|----------------
-----------------------------|-------------------------------|----------------
-----------------------------|-------------------------------|----------------
-----------------------------|-------------------------------|----------------
                                                                              

-7--7--8---8----7---7----10-8-----|-7--7--8--8---7--7------8-------|----------
-8--8--10--10---7---7--7-10---10--|-8--8--10-10--7--7----7-10-10---|----------
--9--9---9---9----8--8------------|--9--9---9--9--8--8-8-----------|----------
----------------------------------|--------------------------------|----------
----------------------------------|--------------------------------|----------
----------------------------------|--------------------------------|----------
	Intro 2(below)                        Verse riff(below)                     

--------------------------------|-----------------------------------|---------
--------------------------------|-----------------------------------|---------
--------------------------------|-----------------------------------|---------
--------------------------------|-----------------------------------|---------
--2--33---------2-3-------2-3---|--2-2-2-2-2-2-2-2-2---2-3-3---2-2-2|---------
-0-0----0000000--0-0000000-0-0--|--0-0-0-0-0-0-0-0-0--0-0-0----0-0-0|---------
         \P.M./     \P.M./         \------P.M.-----/                          
   
	       2nd Part of Solo
----------------------|-------------------------------------------------------
-8---8---8---8---8----|-8---8---10---10---7---7---10---10---------------------
---9---9---9---9---9--|---9---9----9----9---8---8----9----9-------------------
----------------------|-------------------------------------------------------
----------------------|-------------------------------------------------------
----------------------|-------------------------------------------------------
                        
            
Submit corrections

comments powered by Disqus
↑ Back to top | Metallica Tabs for No Leaf Clover. Lyrics for acoustic guitar and electric guitar. Tablatures and chords are parodies/interpretations of the original songs. You may use it for private study, scholarship, research or language learning purposes only