>
 >
Never Never Land

Never Never Land Guitar Tabs

Metallica - Never Never Land chords, tabs, tablatures, lyrics

Guitar lessons | Add/correct | Request | Top 50 tabs Artists:  A B C D E F G H I J K L M N O P Q R S T U V W X Y Z 0-9

Never Never Land Guitar Tabs – Metallica

CD, Sheet music, Poster

Do you like Never Never Land? Share with your friends now
Tabs
Metallica- Never Never Land- TAB
I wrote this a little way i'd like to call: The Right Way.
Intro:
E)--0-0---6-50-0------6-5-----0-0------6-5--
B)-7-----7------------7-------7--------7-------
G)-----------------------------------------------
D)----------------------------------------------- Repeat as necessary
A)-----------------------------------------------
E)-----------------------------------------------

E)---0-0---6-5---0-0------6-5-----0-0-----6-5----2-0-2-0-2-3-2-0-
B)-7------7-------------7-------7-------7------------------------------
G)-----------------------------------------------------------------------
D)-----------------------------------------------------------------------
A)-----------------------------------------------------------------------
E)-----------------------------------------------------------------------

Thats pretty much the whole song except for the long electric guitar and drum solo. Go off to never never land.

Now I lay me down to sleep.
Now I lay me down to sleep.
I pray the Lord my soul to keep.
I pray the Lord my soul to keep.
And If I die before I wake, 
And If I die before I wake,
I pray the Lord My soul to take.
I pray the Lord My soul to take.





Comments


Popular Metallica tabs & chords
Enter Sandman 3 Bass Tabs
Hero Of The Day 3 Bass Tabs
Mercyful Fate Medley 1 Bass Tabs
The Unforgiven Chords
Fixxxer Tabs
Hero Of The Day Intro Tabs
Leper Messiah 1 Tabs
N. E. M. Tabs
Prince Charming Tabs
Ride The Lightning Intro Tabs


Song lyrics



↑ Back to top | Tablatures and chords are parodies/interpretations of the original songs. You may use it for private study, scholarship, research or language learning purposes only
© 2014 AZChords.com Contact us | Privacy policy | DMCA | Add/correct tabs | Request tabs | Top 50 tabs