>
 >
N. E. M.

N. E. M. Guitar Tabs

Metallica - N. E. M. chords, tabs, tablatures, lyrics

Guitar lessons | Add/correct | Request | Top 50 tabs Artists:  A B C D E F G H I J K L M N O P Q R S T U V W X Y Z 0-9

N. E. M. Guitar Tabs – Metallica

CD, Sheet music, Poster

Do you like N. E. M.? Share with your friends now
TabsTabs v2
Nothing Else Matters Intro and first solo


P= pull off
H= hammer on
B= bend

 
                       
                         INTRO 2


                   --------REPEAT  2 TIMES-------------
E| ------------||----------------7---------------------------------||
B| ------------||-------------8------------------------------------||
G| ------------||----------9---------------7-------5---------------||
D| ------------||-------9---------------7-------5------------------||
A| ------------||----7---------------5-------3---------------------||
E| ------------||--------------------------------------------------||

E| --------------7------5----------3-----------3--------2-------------12--|
B| -----------8----------7-----------5-----------3--------4-----------12--|
G| --------9---------------7-----------5-----------4--------2-2-0-0-0-12--|
D| -----9---------------------------------------------2-------------------|
A| --7--------------5-----------3-----------------------------------------|
E| -----------------------------------------3-----------------------------|


                              SOLO 1


E|| -------30----507-8----12------8-----------------|-------------------------|
B|| o------50----70810---13-----10-----------------|-------------------------|
G|| ----------------------------------------------------|-------------------------|
D|| ----------------------------------------------------|-------------------------|
A|| o---------------------------------------------------|-------------------------|
E|| ----------------------------------------------------|-------------------------|

E| --------12---------14--------------12----12------------||
B| -----------13---------15--------12---------12---------o||      Repeat 2 times
G| --------------12---------14----------------------------||
D| -------------------------------------------------------||       
A| ------------------------------------------------------o||
E| -------------------------------------------------------||


E| --------------------------------------------------------------------------------|
B| ------------------------------------12---12---------15b15b---------------------|
G| -----12--14b---12--14b-----12-----------------------14b14b---(14)p12----12-----|
D| ----------------------------------------------14----------------------14----14--|
A| --------------------------------------------------------------------------------|
E| --------------------------------------------------------------------------------|





Comments


Popular Metallica tabs & chords
Fixxxer 2 Bass Tabs
For Whom The Bell Tones Bass Tabs
St. Anger 1 Bass Tabs
2 X 4 Tabs
Harvester Of Sorrow Tabs
Harvester Of Sorrow 1 Tabs
Hero Of The Day Complete Tabs
Ride The Lightning Tabs
Turn The Page Tabs
Whevever I May Roam Tabs


Song lyrics



↑ Back to top | Tablatures and chords are parodies/interpretations of the original songs. You may use it for private study, scholarship, research or language learning purposes only
© 2014 AZChords.com Contact us | Privacy policy | DMCA | Add/correct tabs | Request tabs | Top 50 tabs