» » »

Metallica, N. E. M. Tabs (ver.1)

Artists:  A B C D E F G H I J K L M N O P Q R S T U V W X Y Z # 

N. E. M. Tabs (ver.1)

Metallica Tabs
 Rating:
4/5 (4 votes)
N. E. M. lessons Tabs too difficult? Try these video lessons and learn fast
                Nothing Else Matters Intro and first solo


P= pull off
H= hammer on
B= bend

 
                       
                         INTRO 2


                   ß--------REPEAT  2 TIMES-------------à
E| ------------||----------------7---------------------------------||
B| ------------||-------------8------------------------------------||
G| ------------||----------9---------------7-------5---------------||
D| ------------||-------9---------------7-------5------------------||
A| ------------||----7---------------5-------3---------------------||
E| ------------||--------------------------------------------------||

E| --------------7------5----------3-----------3--------2-------------12--|
B| -----------8----------7-----------5-----------3--------4-----------12--|
G| --------9---------------7-----------5-----------4--------2-2-0-0-0-12--|
D| -----9---------------------------------------------2-------------------|
A| --7--------------5-----------3-----------------------------------------|
E| -----------------------------------------3-----------------------------|


                              SOLO 1


E|| -------3—0----5—0—7—-8----12------8-----------------|-------------------------|
B|| o------5—0----7—0—8—10—---13-----10-----------------|-------------------------|
G|| ----------------------------------------------------|-------------------------|
D|| ----------------------------------------------------|-------------------------|
A|| o---------------------------------------------------|-------------------------|
E|| ----------------------------------------------------|-------------------------|

E| --------12---------14--------------12----12------------||
B| -----------13---------15--------12---------12---------o||      Repeat 2 times
G| --------------12---------14----------------------------||
D| -------------------------------------------------------||       
A| ------------------------------------------------------o||
E| -------------------------------------------------------||


E| --------------------------------------------------------------------------------|
B| ------------------------------------12---12---------15b—15b---------------------|
G| -----12--14b---12--14b-----12-----------------------14b—14b---(14)p12----12-----|
D| ----------------------------------------------14----------------------14----14--|
A| --------------------------------------------------------------------------------|
E| --------------------------------------------------------------------------------|
            
Submit corrections

comments powered by Disqus
↑ Back to top | Metallica Tabs for N. E. M.. Lyrics for acoustic guitar and electric guitar. Tablatures and chords are parodies/interpretations of the original songs. You may use it for private study, scholarship, research or language learning purposes only