>
 >
Motorbreath 2

Motorbreath 2 Guitar Tabs

Metallica - Motorbreath 2 chords, tabs, tablatures, lyrics

Guitar lessons | Add/correct | Request | Top 50 tabs Artists:  A B C D E F G H I J K L M N O P Q R S T U V W X Y Z 0-9

Motorbreath 2 Guitar Tabs – Metallica

CD, Sheet music, Poster

Do you like Motorbreath 2? Share with your friends now
Tabs
The Metallica Source - Tabs - Motorbreath
Track no.3 - Kill'em All


Intro
|---------------------------------------------|
|---------------------------------------------|
|---------------------------------------------|
|---------------------------------------------|
|--------7---8---9----------------------------|
|--------5---6---7--7-7-7--7-7-7--7-7-7-7-7-7-|
      PM.......... .....  ..... ...........


|-------------------------------------------------------------|
|-------------------------------------------------------------|
|-------------------------------------------------------------|
|-------------------------------------------------------------|
|-------------------------------------------------------------|
|--3--3-3-3--3-3-3--3-3-3-3-3-3--5--5-5-5--5-5-5--5-5-5-5-5-5-|
PM..  .....  .....  ...............  .....  .....  ...........

|-----------------------------------------------------|
|-----------------------------------------------------|
|-----------------------------------------------------|
|-----------------------------------------------------|
|-----------------------------------------------------| Repeat the intro
|-2--2-2-2--2-2-2--2-2-3-3-5-5--7--7-7-7--7-7-7-7-7-7-| 
PM.  .....  .....  ...............  .....  ...........


Verse riff
|----------------------------------------|
|----------------------------------------|
|----------------------------------------|
|----------------------------------------|
|--9--9---7--9--9---7----5-5--4--5-5--4--|
|--7--7---5--7--7---5----3-3--2--3-3--2--|
            PM..................

Living and dying    laughing and crying
|-----------------------------------|
|-----------------------------------|
|-----------------------------------|
|-----------------------------------|
|--7-7--5--7-7--5--4-4-----4-4--7---|
|--5-5--3--5-5--3--2-2--0--2-2--5---|
PM.................................
Once...    you'll never be the same

End of verse
|--------------------------------|
|--------------------------------|
|--------------------------------|
|--------------------------------|
|-9-9--7--9-9--7--9-9--7--9-9--7-|
|-7-7--5--7-7--5--7-7--5--7-7--5-|


Chorus
|-------------------------------------------------------------------|
|-------------------------------------------------------------------|
|-------------------------------------------------------------------|
|----4-------------7--7----4----------------------------------------|
|-2--2----5--5-----5--5----2--4--4----5--5----2--2-----4-4-4--4--4--|
|---------3--3----------------2--2----3--3----0--0-----2-2-2--2--2--|
Motorbreath It's how I live... I can't take it any other way

After chorus
|--------------------------------|--------------------------------|
|--------------------------------|--------------------------------|
|--------------------------------|--------------------------------|
|--4p2---4p2---4p2---4p2---4--2--|--4p2---4p2---4p2---4p2---4--2--|
|------2-----2-----2-----2-------|------2-----2-----2-----2-------|
|--------------------------------|--------------------------------|


|--------------------------------|--------------------------------|
|--------------------------------|--------------------------------|
|--------------------------------|--------------------------------|
|--4p2---4p2---4p2---4p2---4--2--|--4p2---4p2---4p2---4p2---4--2--|
|------0-----0-----0-----0-------|------2-----2-----2-----2-------|
|--------------------------------|--------------------------------|


|----------------------|
|----------------------|
|----------------------|
|--4---------4----5----|
|--2---------2----3----|
|----------------------|


Solo 1

*w/Wah
|----------------|-----------------------------------------|
|-12---------9-9-|-12p9----9-12p9----9-12p9----9-12p9----9-|
|-11-------------|------11--------11--------11--------11---|
|----------------|-----------------------------------------|
|----------------|-----------------------------------------|
|----------------|-----------------------------------------|


|-----9----------9----------9----------9------|
|-12^---12p9-12^---12p9-12^---12p9-12^---12p9-|
|---------------------------------------------|
|---------------------------------------------|
|---------------------------------------------|
|---------------------------------------------|


|--------------------------------------|------------------------------------|
|-----9-12p9---------------------------|------------------------------------|
|-11^--------11-9----9-11p9------------|-------------------------------9-11-|
|-----------------11--------11-9-------|--------------9-9-11p9----9-11------|
|--------------------------------11-9\-|-----7-9-9/11----------11-----------|
|--------------------------------------|-/9---------------------------------|


|-------------------------------|
|----------------------------16-|
|-11p9----9-11p9----9-9\/18^----|
|------11--------11-------------|
|-------------------------------|
|-------------------------------|

                           
|-----16-----16-----16-19p16-------------------|-----------------------|
|-19^----19^----19^----------19-16-16-16-19p16-|----16-19p16-19^-------|
|----------------------------------------------|-18--------------------|
|----------------------------------------------|-----------------------|
|----------------------------------------------|-----------------------|
|----------------------------------------------|-----------------------|

Solo 2

|--12p9------12p9------12p9------12p9------|
|-------12p9------12p9------12p9------12p9-|
|------------------------------------------|
|------------------------------------------|
|------------------------------------------|
|------------------------------------------|


|--12p9------12p9------12p9------12p9---------|
|-------12p9------12p9------12p9------12p9h12-|
|---------------------------------------------|
|---------------------------------------------|
|---------------------------------------------|
|---------------------------------------------|


|--12p9-12p9-11-8-8-10-7-7-9-6-6-8-5-5-7-4-4-4-4-4-|
|--------------------------------------------------|
|--------------------------------------------------|
|--------------------------------------------------|
|--------------------------------------------------|
|--------------------------------------------------|


|--4----4-7p4--------------------|-----------------------------|
|-----7-------7-4-7-4------------|----4----4----4----6--4------|
|---------------------6-4-4^---4-|----4----4----4----6--4----4-|
|----------------------------6---|--6----6----6----6-------6---|
|--------------------------------|-----------------------------|
|--------------------------------|-----------------------------|


|-----------------------------------|-------------------------------|
|-----4-7p4-------------------------|-------------------------------|
|--6^-------4h6p4---4-6-4-----------|--------------------------4-6--|
|-----------------6-------6-4-------|------------4-4-6p4---4-6------|
|-----------------------------6--4\-|-----2-4/6----------6----------|
|-----------------------------------|--4----------------------------|


|---------------------------------|------9-9-----------9-----------|
|---------------------------------|----------12^--9-9----12^-12^~--|
|--6^---4-6p4---4-6p4---4/-9--11--|--11^---------------------------|
|-----6-------6-------6-----------|--------------------------------|
|---------------------------------|--------------------------------|
|---------------------------------|--------------------------------|


|--------9---------------9-------------|
|------9---12^---9-9-------12^-12^-12^-|
|--11^---------------11^---------------|
|--------------------------------------|
|--------------------------------------|
|--------------------------------------|


|----------------9h12p9---------------------|
|--12p9-9-9-12p9--------12p9----9-12p9------|
|----------------------------12--------11-9-|
|-------------------------------------------|
|-------------------------------------------|
|-------------------------------------------|


|-----------------------------------16-|
|--------------------------------19----|
|--9-9-11p9----------------------------|
|-----------11-9-9-9-11-9--------------|
|-------------------------11-9^--------|
|--------------------------------------|


|--16--16--16--16--16--16-19p16----16-19p16-21p16-|
|--19^-----19^-----19^----------19----------------|
|-------------------------------------------------|
|-------------------------------------------------|
|-------------------------------------------------|
|-------------------------------------------------|


|--19p16----16-19p16-21p16-19p16----16-19p16-------|
|--------19----------------------19----------19-19-|
|--------------------------------------------------|
|--------------------------------------------------|
|--------------------------------------------------|
|--------------------------------------------------|


|---------------16h19p16--------------------19p16-------|
|------16-19p16----------19-16-----16-19p16-------19-16-|
|--18^-------------------------18^----------------------|
|-------------------------------------------------------|
|-------------------------------------------------------|
|-------------------------------------------------------|


|---------------19p16----16-19^--19^----|--19^---------------|
|------16-19p16-------19----------------|--------------------|
|--18^----------------------------------|--------------------|
|---------------------------------------|--------------------|
|---------------------------------------|--------------------|
|---------------------------------------|--------------------|





Comments


Popular Metallica tabs & chords
For Whom The Bell Tones Bass Tabs
Hit The Lights 2 Bass Tabs
I Disappear Bass Tabs
King Nothing Bass Tabs
Hero Of The Day Intro Tabs
Saint Anger Tabs
The Outlaw Torn 1 Tabs
The Shortest Straw Tabs
The Thing That Should Not Be 2 Tabs
Unforgiven Tabs


Song lyrics



↑ Back to top | Tablatures and chords are parodies/interpretations of the original songs. You may use it for private study, scholarship, research or language learning purposes only
© 2014 AZChords.com Contact us | Privacy policy | DMCA | Add/correct tabs | Request tabs | Top 50 tabs