» » »

Metallica, Metal Militia Tabs (ver.1)

Artists:  A B C D E F G H I J K L M N O P Q R S T U V W X Y Z # 

Metal Militia Tabs (ver.1)

Metallica Tabs
 Rating:
4/5 (4 votes)
Metal Militia lessons Tabs too difficult? Try these video lessons and learn fast
                |------------|----------------||--------------------------------------------|
|------------|----------------||*-------------------------------------------|
|------------|----------------||--------------------------------------------|
|------------|----------------||--------------------------------------------|
|--------3/--|--8----8--7--5--||*-----------------------------------5----7--|
|--------1/--|--6----6--5--3--||---0--0--0--0--0--0--0--0--0--0--0--3----5--|

				  PM..............................]	     



|-------------------------------------------|----------------------------------------|-------------------------------------------|----------------------------------------
|-------------------------------------------|----------------------------------------|-------------------------------------------|----------------------------------------|-----------------------------------8----7--|-----------------------------------5----|0--0--0--0--0--0--0--0--0--0--0--6----5--|--0--0--0--0--0--0--0--0--0--0--0--3----5

  PM..............................]           PM..............................]



|-------------------------------------------|------------------------------------||
|-------------------------------------------|-----------------------------------*||
|-------------------------------------------|------------------------------------||
|-------------------------------------------|------------------------------------||
|-----------------------------------5----7--|--------------------------8--7--5--*||
|--0--0--0--0--0--0--0--0--0--0--0--3----5--|--3--3--3--3--3--3--3--3--6--5--3---||

  PM..............................]           PM.....................]

| 

||----------------|------------------|------------------|-------------------||
||*---------------|------------------|------------------|------------------*||
||----------------|------------------|------------------|-------------------||
||----------------|------------------|------------------|-------------------||
||*---------------|------------------|------------------|------------------*||
||----------------|------------------|------------------|-------------------||

|--------------------------|--------------------|---------------|
|--------------------------|--------------------|---------------|
|--------------------------|--------------------|---------------|
|--------------------------|--------------------|---------------|
|--------------------------|--8--7--5--8--7--5--|--7--------12\-|
|--0--0--0--0--0--0--0--0--|--6--5--3--6--5--3--|--5------------|
            
Submit corrections

comments powered by Disqus
↑ Back to top | Metallica Tabs for Metal Militia. Lyrics for acoustic guitar and electric guitar. Tablatures and chords are parodies/interpretations of the original songs. You may use it for private study, scholarship, research or language learning purposes only