>
 >
Mercyful Fate

Mercyful Fate Guitar Tabs

Metallica - Mercyful Fate chords, tabs, tablatures, lyrics

Guitar lessons | Add/correct | Request | Top 50 tabs Artists:  A B C D E F G H I J K L M N O P Q R S T U V W X Y Z 0-9

Mercyful Fate Guitar Tabs – Metallica

CD, Sheet music, Poster

Do you like Mercyful Fate? Share with your friends now
Tabs
MERCYFUL FATE (medley incl. Satan’s fall, curse of the pharaohs, corpse without a soul, into the coven, and evil)

As performed by Metallica on "Garage Inc".
All songs originally written by Mercyful Fate.

Tuning: standard (E,A,D,G,B,e)

Its all here. Solos, rythmn, I even put the time in where the certain riffs start.
SATANS FALL

riff 1 
(0:00)                                    

start only                                    1st ending      2nd ending
    |-----|----------------------------------|---------------|--------------------------
    |-----|----------------------------------|---------------|--------------------------
    |-----|----------------------------------|---------------|--------------------------
    |-----|-------4p0---------4p0---------4p0|----------0h5--|--4---2-------------------
    |-----|----------------------------------|------0h2------|--2---0-------------------
    |-15\-|--0--2------2p0--2------2p0--2----|--0h2----------|--------------------------

riff 1a (solo) –played over riff 1-
(0:04)
|-14--14---14--14-----14-----------|-14------------------------------------|
|-17b-17b--17b-17b-------17p14-17b-|----17p14-----14-16p14-----------------|
|----------------------------------|----------16b----------16p14----14-16b-|
|----------------------------------|-----------------------------16--------|
|----------------------------------|---------------------------------------|
|----------------------------------|---------------------------------------|

|------------------------------|-------------------------------|
|-----------14--16--16br--16br-|-16br--------------------------|
|-16p14-----14--16--16br--16br-|-16br--14---------------14--16-|
|-------16---------------------|----------16-~-~-~--16---------|
|------------------------------|-------------------------------|
|------------------------------|-------------------------------|

|--------------------------------------|------------------------------||-------|
|-----.-.-.-.-.-.-.-.-.-.-.-.-.-.-.-.-.|.-.-.-.-.-.-.-.---------------||-------|
|--16b---16-16---16-16---16-16---16-16-|-16-16-16-16-16r14------------||-------|
|--------------------------------------|--------------------16-~-~-~--||-(16)\-|
|--------------------------------------|------------------------------||-------|
|--------------------------------------|------------------------------||-------|

riff 1 (0:14) “They’re walking by the night...”

riff 2
(0.28)
|----------------------------------------------------------------------------------
|----------------------------------------------------------------------------------
|----------------------------------------------------------------------------------
|--4----4-------5------------------------------------------------------------------
|--2----2-------3-------5--5--5--5--5---5--4---------------------------------------
|-----------------------3--3--3--3--3---3--2---------------------------------------
  "Bringing the blood    of a newborn child...."

riff 1 (0:31) “yeaahh...”

riff 2 (0:36) “got to succeed...”


CURSE OF THE PHARAOHS

riff 1 
(0:44)
|-----------------------------
|-----------------------------
|--2-------5-----2-----5---7-7~
|--2-------5-----2-----5---7-7~
|--0-0-0-0---0-0-0-0-0---0-----
|------------------------------

|-----------------------------
|-----------------------------
|--2-------5-----2-----5---5-4
|--2-------5-----2-----5---5-4
|--0-0-0-0---0-0---0-0---0----
|-----------------------------

|--------------------------------------------------------------
|--------------------------------------------------------------
|--2p0-2p0-5-2---2-----5---7-7~7p5---2-------5-------0-----0----
|--2p0-2p0-5-2---2-----5---7-7~7p5---2-------5-----2-----0------
|--0-0-0-0---0-0-0-0-0---0---------7-0-0-0-0---0-3-----2-------2
|------------------------------------------------------------3--

Riff 2 
(0:57)
|-------------------------------------
|-------------------------------------
|------7-5-2-----2-----4-5h7p5h7p5h7p5
|------7-5-2-----2-----4--------------
|--0-0-----0-0-0-0-0-0----------------
|-------------------------------------
   pm..       ...   ...

Riff 3 
(1:01)
|-------------------------------------
|------------------------5h6p5h6p5h6p5
|------7-5-2-----2-----4--------------
|------7-5-2-----2-----4--------------
|--0-0-----0-0-0-0-0-0----------------
|-------------------------------------
   pm..       ...   ...

riff 2 (1:04)

riff 3 (1:08)

riff 4
(1:11)
|----------------------------------------------------------------------------------
|----------------------------------------------------------------------------------
|----------------------------------------------------------------------------------
|----------------------------------------------------------------------------------
|--2--4-4-4--4-4-4--4-4-4--4-4-4--4-4-4--4-4-4-2-5-7-------------------------------
|--0--2-2-2--2-2-2--2-2-2--2-2-2--2-2-2--2-2-2-0-3-5-------------------------------

riff 4a –solo over riff 4-
(0:15)
|---------------------------|-------------------------------|
|---------------------------|--------------.-.-.-.----------|
|---------------------------|--------2--4b-------rp2--------|
|---------------------------|-2--4--------------------4-~-~-|
|--------------------2--4---|-------------------------------|
|-----3-------2--5----------|-------------------------------|

|-------------|------------|---19br(19)p17--19br(19)p17--19br(19)p17-|
|-------------|------------|-----------------------------------------|
|-------------|------------|-----------------------------------------|
|-------(4)\--|------------|-----------------------------------------|
|-------------|------------|-----------------------------------------|
|-------------|------------|-----------------------------------------|

|-19b--19--19--19--19-(19)p17---------|-------------------|-------------------|
|------------------------------19-----|------(19)\--------|-------------------|
|-------------------------------------|-------------------|-------------------|
|-------------------------------------|-------------------|-------------------|
|-------------------------------------|-------------------|-------------------|
|-------------------------------------|-------------------|-------------------|

riff 4 (1:25) “way out over Egypt...”

riff 4b –solo over riff 4-
(1:29)
   AH               AH                AH                 AH
|----------------------------------|------------------------|
|----.-.-.------------.-.-.--------|------------------------|
|--4b----(4)p2--4---4b----(4)p2----|--2---2-----------------|
|--------------------------------4-|---------4p2-----2---4--|
|----------------------------------|--------------4---------|
|----------------------------------|------------------------|

riff 4 (1:32) “where the mummified pharaohs...”

riff 5
(1:39)
|----------------------------------------------------------------------------------
|----------------------------------------------------------------------------------
|----------------------------------------------------------------------------------
|----------------------------------------------------------------------------------
|--6--------------7--------------2--5--7--9-9-9-9-9-9-9--11------------------------
|--4-4-4-4-4-4-4--5-5-5-5-5-5-5--0--3--5--7-7-7-7-7-7-7--9-9-9-9-9-9-9-9-----------
     * * * * * *    * * * * * *             * * * * * *    * * * * * * *

riff 6
(1:46)
|---------------------------------------------------
|---------------------------------------------------
|---------------------------------------------------
|--------2---5-4-------2-----------2---7-6---------2
|--4-2-4-0-4-3-2-3-2-0-0-2---4-2-4-0-4-5-4-5-4-2-2-0
|--2-0-2---2-------------0---2-0-2---2-----------0--

riff 7
(2:03)
|----------------------------------------------------------------------------------
|----------------------------------------------------------------------------------
|----------------------------------------------------------------------------------
|----------------------------2------------4--2-------------------------------------
|--2--4---------4--5---------0--4---------2--0-------------------------------------
|--0--2--x-x-x--2--3--x-x-x-----2--x-x-x-------------------------------------------

riff 8  -solo backing-
(2:18)
|----------------------------------|----------------------------------|
|----------------------------------|----------------------------------|
|----------------------------------|----------------------4---4---4---|
|----------------------------------|-6--6--6--6--6--6-----4---4---4---|
|-4-4-4-4-4-4-4-4-4-4-4-4-4-4-4-4--|-4--4--4--4--4--4--0--2---2---2---|
|----------------------------------|----------------------------------|
PM*******************************

riff 8a –solo played over riff 8-
(2:18)
|----------------------------------|--------9-------------|-----------------------------|
|----------------------------------|-9--------12p9----9---|---------------9b------------|
|-------------------9h10-----------|-9--11b--------11---9-|---------------9b------------|
|-11p9-11--11-11-11------11--11-11-|----------------------|-/11--11-11-11----11-11-11-11|
|----------------------------------|----------------------|-----------------------------|
|----------------------------------|----------------------|-----------------------------|

|--------------------------------------|--------------------------------|
|-----11--------11p9-------------------|--------------9-------------9---|
|-11--11--9-11--11p9----9-~-~-9--10-10-|-11p9----9--9----11p9----9----9-|
|--------------------11----------------|------11--------------11--------|
|--------------------------------------|--------------------------------|
|--------------------------------------|--------------------------------|

|-----------------9---------------------------|---------------------------|
|---------------9---12p9---------------14(17)-|-------------------(14)h17-|
|-11p9----9-11b----------11p9----9b-----------|---------------------------|
|------11---------------------11----11--------|---------------------------|
|---------------------------------------------|---------------------------|
|---------------------------------------------|---------------------------|

|-------------.-.-.-.-.------|-----------------------------------|
|--------(17)b---------r--16-|-----------------------------------|
|-------------------------16-|---------------h16p14h16p14h16-----|
|-------------------------16-|-----------------------------------|
|----------------------------|-----------------------------------|
|----------------------------|-----------------------------------|

. . . . . . . . . ~~~~. . . . . . . . . . . . . . . . . . . . . .     sl.
|----------------------------|-17-17-17-17-17---17----------------|-17\\\14-|
|----------------------15-15-|-15-15-15-15-15---17-17-17-17-17-17-|-17\\\14-|
|-14h16p14---14-14-----------|------------------------------------|---------|
|----------------------------|------------------------------------|---------|
|----------------------------|------------------------------------|---------|
|----------------------------|------------------------------------|---------|

  tr~~~~~ . . . . . . . . . . . . . . . . .     sl.
|-------------------|---------------------|-------------------------|
|-14-(17)-----------|---------------------|-------------------------|
|-----------14-14p0-|---11----------11----|-(11)\-------------------|
|-------------------|---------------------|-------------------------|
|-------------------|---------------------|-------------------------|
|-------------------|---------------------|-------------------------|

riff 9
(2:47)
|------------------------------------------------------------------------------
|------------------------------------------------------------------------------
|--2------------4-------------5------------4-----------------------------------
|--0--4---------2--4----------3--4---------2--4--------------------------------
|-----2------------2-------------2------------2--------------------------------
|--------x-x-x--------x-x-x---------x-x-x--------x-x-x-------------------------

riff 10
(2:55)
|------------------------------------------------------------------------------
|------------------------------------------------------------------------------
|------------------------------------------------------------------------------
|--2------------4------------5------------4------------------------------------
|--0--4---------2--4---------3--4---------2--4---------------------------------
|-----2--x-x-x-----2--x-x-x-----2--x-x-x-----2---------------------------------

riff 11
(3:02)
|--------------|------/---\-------|-----------------------------|
|--------------|------------------|-----------------------------|
|-9------------|-7----------------|-----------------------------|
|-9------------|-7----7-6-5-------|-4--4-4-4--4-4-4--4-4-4--4-4-|
|-7------------|-5----5-4-3-------|-0--2-2-2--2-2-2--2-2-2--2-2-|
|--------------|------------------|-----------------------------|

|--------------------------|-------------------------|----------------------|
|--------------------------|-------------------------|----------------------|
|------------------------2-|-------------------------|----------------------|
|-4--4-4-4--4-4-4-----4--0-|-4--4--4-4-4--4-4-4--4-4-|-4--4-4-4--4-4-4------|
|-2--2-2-2--2-2-2--0--2----|-2--2--2-2-2--2-2-2--2-2-|-2--2-2-2--2-2-2--2-2-|
|--------------------------|-------------------------|------------------0-0-|

riff 11a –played over riff 11-
(3:02)
tr~~~~~~~~~~~~~~~~~~~
|--------------|------------------|-----------------------------|
|-12--(15)-----|------15b-r-b-r-b-|-r-b-r(15)p12----(12)-~-~-~--|
|--------------|------------------|-----------------------------|
|--------------|------------------|-----------------------------|
|--------------|------------------|-----------------------------|
|--------------|------------------|-----------------------------|

~~~~~~~ sl.                                           AH . . . . . . . .
|--------------------------|-------------------------|----------------------|
|-----(12)\----------------|---7---------------------|----------------------|
|---------------------9b---|------9b---9p7-----7--9--|-9brp7--9brp7--9brp7--|
|--------------------------|----------------9--------|----------------------|
|--------------------------|-------------------------|----------------------|
|--------------------------|-------------------------|----------------------|

riff 4 (3:13) “ohhh the curse...”

riff 4c –solo over riff 4-
(3:17)
|-------------------------|--------------|-19br-19br-19b------(19)\-|
|-------------------------|----------17--|--------------------------|
|--(7)\-------------------|--------------|--------------------------|
|-------------------------|--------------|--------------------------|
|-------------------------|--------------|--------------------------|
|-------------------------|--------------|--------------------------| 

|-------------------------------|------------------|-------------------|
|----------14--17br-(17)---(17)\|-x\---------------|-------------------|
|------14-----------------------|------------------|-------------------|
|-/16---------------------------|------------------|---------------/16-|
|-------------------------------|------------------|-------------------|
|-------------------------------|------------------|-------------------|

riff 4d –solo over riff 4-
(3:26)
|-17-17-17---------17-17-17--------|-17---------------------------|-----------------|
|----------------------------------|------------------------------|-----------------|
|-14-14-14--14-----14-14-14--14----|-14---14---14-14--------------|-----------------|
|--------------16---------------16-|------14---14-14--16--(16)\/6-|---6---6---6---7-|
|----------------------------------|------------------------------|-----------------|
|----------------------------------|------------------------------|-----------------|

|--------------------|--------------|--------------------------|
|--------------------|--------------|--------------------------|
|----------------/11-|--11--11--11--|-13--13--13--13--13-------|
|----------------/-9-|---9---9---9--|-11--11--11--11--11-------|
|------9--7--9-------|--------------|--------------------------|
|--------------------|--------------|----------------------x\--|

riff 4 (3:28) “don’t touch...”

riff 5 (3:35) “or you’ll be hexed...”


A CORPSE WITHOUT A SOUL

Riff 1 
(3:48)
|-----------|-----------|-----------|-----------||
|-----------|-----------|-----------|-----------||
|-----------|-----------|-----------|-----------||
|--5----4---|--5----7---|--4----5---|--3----4---||
|--3----2---|--3----5---|--2----3---|--1----2---||
|-----------|-----------|-----------|-----------||

riff 2
(3:54)
|------------------------|--------------------|-----------------------|
|------------------------|--------------------|-----------------------|
|--------------5---------|-7---7--5--7--5-----|--------------5--------|
|------7p5-----5--7p5----|-7---7--5--7--5---6-|-7-----7p5----5--7p5---|
|-0--0------7----------0-|--------------------|-0--0------7---------7-|
|------------------------|--------------------|-----------------------|
PM****                                          ****
|-----------------|------------------------|------------------|
|-----------------|------------------------|------------------|
|----------5--0---|--------------5---------|-7----7--5--7--5--|
|-5--------5--0---|-------7p5----5--7p5----|-7----7--5--7--5--|
|----7--5---------|-0--0------7---------0--|------------------|
|-----------------|------------------------|------------------|
                 PM ****
|---------------------------------|-------------------------------|
|---------------------------------|-------------------------------|
|-7p5-----5-----------------------|---------------7--7------------|
|------7-----7p5--7p5-----5-------|---------------7--7------------|
|----------------------7-----7--5-|-7p5\3--5p3p0------------------|
|---------------------------------|-------------------------------|

riff 3
(4:03)
||--------------------------|---------------|-----------------------|------------------||
||-o------------------------|-7--7-5-7-5----|-----------------------|----------------o-||
||-----------------5--------|-7--7-5-7-5----|--------------5--------|------------------||
||-o--------7p5----5--7p5---|---------------|-------7p5----5--7p5---|-5--7p5----5----o-||
||----0--0------7---------0-|---------------|-0--0------7---------7-|--------7--3--5---||
||--------------------------|---------------|-----------------------|--------------3---||

riff 4
(4:14)
|----------------------|----------------------|----------------------|----------------|
|----------------------|----------------------|-------------5--------|----------------|
|-------------5--------|----------------------|-------------5--------|--7--7-5-7-5----|
|------7p5----5--7p5---|-------7p5---5--7p5---|-------7p5------7p5---|--7--7-5-7-5----|
|-0--0-----7---------7-|-0--0------7--------7-|-0--0------7--------7-|----------------|
|----------------------|----------------------|----------------------|----------------|
PM****                   ****                   ****        

|----------------------|----------------------|----------------------|----------------|
|----------------------|----------------------|-------------5--------|----------------|
|-------------5--------|----------------------|-------------5--------|----------------|
|------7p5----5--7p5---|-------7p5---5--7p5---|-------7p5------7p5---|-5--7p5----5----|
|-0--0-----7---------7-|-0--0------7--------7-|-0--0------7--------7-|--------7--3--5-|
|----------------------|----------------------|----------------------|--------------3-|
PM****                   ****                   ****        


Riff 5
(4:35)
|--------------|----------------|------------|
|--------------|----------------|------------|
|-7------------|----------------|--5---------|
|-7------------|--------4--4--4-|--5---------|
|-5------------|--------2--2--2-|--3---------|
|--------------|---x\-----------|------------|
                     PM *******

Riff 6
(4:39)
|----------||----------------------|----------------------------|
|----------||----------------------|--6--------8--8-------------|
|---x--7\--||--------------5-------|--5--------7--7-------------|
|---x--7\--||-------7p5----5-------|----------------------------|
|---x--5\--||-0--0------7-----0--0-|-----0--0-------------------|
|----------||----------------------|----------------------------|
           PM ****            ****       ****      
|-----------------------|----------------|
|-----------------------|----------------|
|--------------5--------|-----------5--0-|
|-------7p5----5--7p5---|-----------5--0-|
|-0--0------7---------0-|-(10)\\\--------|
|-----------------------|-(10)\\\--------|
PM****                *                        

riff 3
(4:45)

riff 4 “i... i... yeaheah, I’m trapped...”
(4:49)

riff 5 “inside his spell...”
(5:10)

riff 7
(5:14)
|------------------|------------------|
|------------------|------------------|
|------------------|------------------|
|-7--5--4--5--4----|-4----------------|
|-5--3--2--3--2--0-|-2--0-----0--5--4-|
|------------------|-------3-----3--2-|

|------------|-----------|-------------------|----------------------|
|-2\\\\\\\\\\|\\\\\\\\\\\|-2--2----2--2----2-|----------------------|
|-2----------|-----------|-2--2----2--2----2-|--2-------------------|
|-2----------|-----------|-2--2----2--2----2-|--2-------------------|
|-0----------|-----------|-0--0----0--0----0-|--0-------------------|
|------------|-----------|-------------------|----------------------|


INTO THE COVEN

Riff 1
(5:26)
|----------------------|---------------------|-----------------------|-----------------|
|----------------------|---------------------|-----------------------|-----------------|
|----------------------|-5b----------------5-|-4-------4--------4----|-5--------5---7--|
|-7--------7-------5-7-|----7-----7--------5-|-5-------5--------5----|-3--------5---7--|
|-0--0--0--0--0--0-0-0-|----0--0--0--0--0----|---0--0-----0--0-----0-|----0--0--3---5--|
|----------------------|---------------------|-----------------------|-----------------|
  PM *****    ****             *     ****        ****     ****     *      ****
|----------------------|---------------------|---------------------|--------------------|
|----------------------|---------------------|---------------------|--------------------|
|----------------------|-5b----------------5-|--4------4-------4\3-|-5---------5----7---|
|-7--------7-------5-7-|----7-----7--------5-|--5------5-------5\4-|-3---------5----7---|
|-0--0--0--0--0--0-0-0-|----0--0--0--0--0----|----0--0---0--0----0-|----0--0---3----5---|
|----------------------|---------------------|---------------------|--------------------|
  PM ****     ****             *     ****         ****   ****    *      ****

Riff 1a –played over riff 1-
(5:26)
|-------------8------7h8-7~~-----8~~~---/12--10tr12-|
|---10~--8-10---10~---------------------------------|
|---------------------------------------------------|
|---------------------------------------------------|
|---------------------------------------------------|
|---------------------------------------------------|

riff 1 -drums and bass come in-
(5:41)

riff 2
(5:54)
|-------------------------|
|-------------------------|
|-------------------------|
|-10-7-7--5-7-5-7-7-7-8-8-|
|--8-5-5--3-5-3-5-5-5-6-6-|
|-------------------------|

|------------------------|
|------------------------|
|------------------------|
|-10-7-7--5-7-5-7-8-9-10-|
|--8-5-5--3-5-3-5-6-7--8-|
|------------------------|

riff 1 “howl... like a wolf...” 
(6:01)

riff 3
(6:15)
|------------------------------|
|------------------------------|
|------------------------------|
|------------------------------|
|-5-4-----------------------5--|
|-3-2-2-2-2-2-2-2-2-2-2-2-2-3--|
      * * * * * * * * * * *
|------------------------------|
|------------------------------|
|------------------------------|
|------------------------------|
|-5-4---------------0-2-3-4-2--|
|-3-2-2-2-2-2-2-2-2---------0--|
      * * * * * *
|------------------------------|
|------------------------------|
|------------------------------|
|------------------------------|
|-5-4-----------------------5--|
|-3-2-2-2-2-2-2-2-2-2-2-2-2-3--|
      * * * * * * * * * * *
|--------------------------|
|--------------------------|
|--------------------------|
|-----------------2---2----|
|-5-4-------------0---0-2--|
|-3-2-2-2-2-2-2-2---2---0--|
      * * * * * *   *

riff 1b –solo over riff 1-
(6:29)
|----------------------|
|----------------------|
|----------------------|
|-/7---(7)-~-~-~--5h7--|
|----------------------|
|----------------------|
  
                                 AH
|---------------|---------------------|-------------|----------------------|
|---------------|---------------------|-------------|----------------------|
|-5b--------5-4-|-5-*-7-*-5-*-4-------|-------------|--------------------5-|
|-----7---------|----------------7--5-|-3-2---------|----------------------|
|---------------|---------------------|-----5-3-5-5-|-5br--3---3--5-5/7----|
|---------------|---------------------|-------------|--------5-------------|


|---------------------|----------5-------------|------------------------||
|-------5--7--7br-----|------------8-5---------|-------------------5-5--||
|-------5--7--7br-5---|-5--7bb-----------7-5---|-5--7--7brp5-------5-5--||
|-7-----------------7-|----------------------7-|-------------7-~-~------||
|---------------------|------------------------|------------------------||
|---------------------|------------------------|------------------------||

riff 1 “dress...till your’e naked...” 
(6:43)

riff 2 “yeah... come come, into my coven...”
(6:57)

EVIL

Riff 1
(7:09)
|-----------------|---------------|-------------------|
|-----------------|---------------|-------------------|
|-----------------|---------------|-------------------|
|----2------2-----|-5--5--5--5--5-|-5--5--5-----------|
|-4--0------0---2-|-3--3--3--3--3-|-3--3--3--5--4--2--|
|-2------0------0-|---------------|----------3--2--0--|

riff 2
(7:14)
|----------------------------------------------|
|----------------------------------------------|
|----------------------------------------------|
|----/12-12-9-----/12-12-9-----/12-12--7-9-7-9-|
|-77-/10-10-7--77-/10-10-7--77-/10-10--5-7-5-7-|
|----------------------------------------------|
  **           **           **

|----------------------------------------------|
|----------------------------------------------|
|----------------------------------------------|
|----/12-12-9-----/12-12-9-----/12-12--7-9-7-4-|
|-77-/10-10-7--77-/10-10-7--77-/10-10--5-7-5-2-|
|----------------------------------------------|
  **           **           **       

riff 3
(7:28)
|-------------------------------|
|-------------------------------|
|-------------------------------|
|-4-4-4-4-4-4-4-4-4-4-4-4---4-7-|
|-2-2-2-2-2-2-2-2-2-2-2-2-0-2-5-|
|-------------------------------|

|-------------------------------|
|-------------------------------|
|-------------------------------|
|-4-4-4-4-4-4-4-4-4-4-4-4---4-7-|
|-2-2-2-2-2-2-2-2-2-2-2-2-0-2-5-|
|-------------------------------|
  
|-------------------------------|
|-------------------------------|
|-------------------------------|
|---------------------------4-7-|
|-5-5-5-5-5-5-5-5-5-5-5-5-0-2-5-|
|-3-3-3-3-3-3-3-3-3-3-3-3-------|
  
Riff 3a -1st ending-
|-------------------------------|
|-------------------------------|
|-------------------------------|
|-4-4-4-4-4-4-4-4-4-4-4-4---4-7-|
|-2-2-2-2-2-2-2-2-2-2-2-2-0-2-5-|
|-------------------------------|

Riff 3b -2nd Ending-
|-----------------------------|
|-----------------------------|
|-----------------------------|
|-4-4-4-4-2-------------------|
|-2-2-2-2-0--5--5-5-5-5-4-3-2-|
|------------3--3-3-3-3-2-1-0-|

riff 2a –solo over riff 2-
(7:55) 
|----------------------|-----------------------------------------------------------|
|----------------------|-12-15p12-----12---15p12-----12---15p12-----12---15p12-----|
|------------------14b-|----------14b------------14b------------14b------------14b-|
|-------------------9--|-----------------------------------------------------------|
|----------5--4-----7--|-----------------------------------------------------------|
|-3--3--3--3--2--0-----|-----------------------------------------------------------|
                         * with wah 
              AH      
|-------------------------------------------|----------------------------------------
|-12h15p12-----------12---12-15-15p12-15p12-|-15p12-12-15p12--12-15p12--12-15p12-15b-
|---------15-13-13br----13------------------|---------------15--------15-------------
|-------------------------------------------|----------------------------------------
|-------------------------------------------|----------------------------------------
|-------------------------------------------|----------------------------------------

      hold . . . .                                                                
-------15b-|-------r--15br---12-|-15p12-------12h15p12----------11h14p11----------------|
-15p12-----|----------15br------|-------13-13----------12-11h12----------12-11h12----9h12
-----------|--------------------|--------------------------------------------------10---|
-----------|--------------------|------------------------------------------------12-----|
-----------|--------------------|-------------------------------------------------------|
-----------|--------------------|-------------------------------------------------------|

|-9h12-0-0--10p8h10---10p7-9---9p6-8---|-7---------------------------|
|-------------------8--------6-------5-|---/12--12-----------------5/|
|--------------------------------------|-----------13\  6-6-6--------|
|--------------------------------------|----------------------7------|
|--------------------------------------|-----------------------------|
|--------------------------------------|-----------------------------|
        AH
|---------------------------||-------------------------|
|-/21\---.-.-.-.-.-.------5-||-(5)\--------------------|
|-------2b-----2-2-(2)rp0---||-------------------------|
|---------------------------||-------------------------|
|---------------------------||-------------------------|
|---------------------------||-------------------------|

riff 4
(8:08)
|-------------------------|-----------------------|
|-------------------------|-----------------------|
|-------------------------|-----------------------|
|-------------------------|------------------7--5-|
|-4--4--4-4-4--4-4-4--4-4-|-4--4-4-4--4-4-4--5--3-|
|-2--2--2-2-2--2-2-2--2-2-|-2--2-2-2--2-2-2-------|
PM      ***********************************

|-----------------------------|-----------------------|-----------------------------|
|-----------------------------|-----------------------|-----------------------------|
|-----------------------------|-----------------------|-----------------------------|
|-5--5-5-5--5-5-5--5-5-5--5-5-|-5--5-5-5--5-5-5--4--2-|-2--2-2-2--2-2-2--2-2-2--2-2-|
|-3--3-3-3--3-3-3--3-3-3--3-3-|-3--3-3-3--3-3-3--2--0-|-0--0-0-0--0-0-0--0-0-0--0-0-|
|-----------------------------|-----------------------|-----------------------------|
  PM ******************************************            ************************
      
|---------------------------|---------------------------|--------------------------|
|---------------------------|---------------------------|--------------------------|
|---------------------------|---------------------------|--------------------------|
|-2--2-2-2--2-2-2--4--5--6--|--6-6-6--6-6-6--6-6-6--6-6-|-6--6-6-6--6-6-6--7--8--9-|
|-0--0-0-0--0-0-0--2--3--4--|--4-4-4--4-4-4--4-4-4--4-4-|-4--4-4-4--4-4-4--5--6--7-|
|---------------------------|---------------------------|--------------------------|
PM***************              ************************************************

Riff 2 “I love to hear you cry...”
(8:22)

riff 4 “and ill be the first...”
(8:36)

riff 2b –solo over riff 2-
(8:50)
|---------||---------------|-------------------------------------|
|---------||---------------|-------------------------------------|
|---14----||-14--(14)b-----|-14br(14)p12----12-14-b14r--12-12-12-|
|---------||---------------|-------------14----------------------|
|---------||---------------|-------------------------------------|
|---------||---------------|-------------------------------------|
 w/wah trem pick
    ~~~                                                                           ~~
|-------------------------------------------------|--------------------------------12-|
|-------------------------------------------------|-----------------------15b--/14----|
|-------/12--14p12-12-14p12-12-12-14p12--12h14p12-|-12-12-14p12--12-14p12-------------|
|-14--\--------------------------------14---------|------------14---------------------|
|-------------------------------------------------|-----------------------------------|
|-------------------------------------------------|-----------------------------------|

|-16p12--12--15p12p0--15p12p0--15p14p12p0--15p14p12--15p14p12p0--0-|
|------------------------------------------------------------------|
|------------------------------------------------------------------|
|------------------------------------------------------------------|
|------------------------------------------------------------------|
|------------------------------------------------------------------|
                                                                 . . .
|-15p14p12p0--15p14p12p0--15p14p12p0--15p14p12p0--15p12--15p14p12--15b--|
|-----------------------------------------------------------------------|
|-----------------------------------------------------------------------|
|-----------------------------------------------------------------------|
|-----------------------------------------------------------------------|
|-----------------------------------------------------------------------|
                                                                   ~~~~
|----r-15p14-12---12h14p12-12-12-14-|-15--14-12--12-12-15p12-----------|
|--------------15-------------------|----------15-----------15p12-12---|
|-----------------------------------|------------------------------/14-|
|-----------------------------------|----------------------------------|
|-----------------------------------|----------------------------------|
|-----------------------------------|----------------------------------|

riff 5 –solo backing from this point on- (similar to riff 2)
(9:03)
|------------------------------------|
|------------------------------------|
|------------------------------------|
|------------------------------------|
|----x--x---7/10---7----x-x----7/10--|
|----x--x---5/8----5----x-x----5/8---|

|---------------------------------|----------------------------|-----------------------||
|---------------------------------|----------------------------|-----------------------||
|---------------------------------|----------------------------|-----------------------||
|---------------------------------|----------------------------|---------------------7-||
|-7---x--x---7/10---5--7--5---7---|--x--x--7/10--7--x--x--7/10-|-7--x-x--7/10--5-7-5-7-||
|-5---x--x---5/8----3--5--3---5---|--x--x--5/8---5--x--x--5/8--|-5--x-x--5/8---3-5-3-5-||


riff 5a –solo over riff 5-
(9:03)
|------------------------------------|
|----------12h13---------------12h13-|
|----14-14---------14-14-14-14-------|
|------------------------------------|
|------------------------------------|
|------------------------------------|

|---------------------------------|----------------------------|-----------------------||
|------------12h13--12-13-13p21---|--------12h13---------12h13-|---------12h13-12-13p12||
|-14-14-14-14------------------14-|14-14-14------14-14-14------|-14-14-14--------------||
|---------------------------------|----------------------------|-----------------------||
|---------------------------------|----------------------------|-----------------------||
|---------------------------------|----------------------------|-----------------------||

|--------------------|---------------|----------------|------------------|
|--------------------|---------------|----------------|------------------|
|-14---------(14)\\\-|---------------|----------------|------------------|
|--------------------|---------------|----------------|------------------|
|--------------------|---------------|----------------|------------------|
|--------------------|---------------|----------------|------------------|

Riff 6
(9:10)
|---------------------------|
|---------------------------|
|---------------------------|
|-----------7-5-----------5-|
|-7-7--5-7--5-3--5-5-3-3--3-|
|-5-5--3-5-------3-3-1-1----|

|---------------------------|
|---------------------------|
|---------------------------|
|-----------7-5-------------|
|-7-7--5-7--5-3--5-5---3-3--|
|-5-5--3-5-------3-3---1-1--|
  
|---------------------------|
|---------------------------|
|---------------------------|
|-----------7-5-----------5-|
|-7-7--5-7--5-3--5-5-3-3--3-|
|-5-5--3-5-------3-3-1-1----|
   
|---------------------------|
|---------------------------|
|---------------------------|
|-----------7-5-----------5-|
|-7-7--5-7--5-3--5-5-3-3--3-|
|-5-5--3-5-------3-3-1-1----|
  
riff 7
(9:38)
|---------------------------------|
|---------------------------------|
|---------------------------------|
|-------------5-------------------|
|-3-3--x-x--3-3-5-7-7--xxx-x-xxxx-|
|-1-1--x-x--1---3-5-5--xxx-x-xxxx-|

|----------------------------|
|----------------------------|
|----------------------------|
|-7-7------5-5----3-3----7-5-|
|-5-5-5555-3-3-33-1-1----5-3-|
|----------------------------|

riff 7a –solo over riff 7-
(9:51)

|--------------------|-------------------------|------------------------------|
|--------------------|-------------------------|-----------------------10h11/-|
|-12b-12b-12b--12-10-|-9-10-10p9----9--------9-|-10-9h10p9----9-10-12---------|
|--------------------|-----------12---12b-~----|-----------12-----------------|
|--------------------|-------------------------|------------------------------|
|--------------------|-------------------------|------------------------------|
            
|----------------------------|--------10----------------------|--------------------|
|-/13\11-10------------------|-----10----10-11-10h11p10----10-|-13b--13b--13b--13b-|
|-----------10--10-~-~-(10)\-|-/12----------------------12----|--------------------|
|----------------------------|--------------------------------|--------------------|
|----------------------------|--------------------------------|--------------------|
|----------------------------|--------------------------------|--------------------|

|-----------------------|-----------------------|---------------------------|
|-13-11-10-----10----10-|-----------------------|---------13--12/13-13--12/-|
|----------12-----12----|-12br-10h12-10-~-(10)\-|--13/14--14--13/14-14--13/-|
|-----------------------|-----------------------|---------------------------|
|-----------------------|-----------------------|---------------------------|
|-----------------------|-----------------------|---------------------------|

|---------------------------|-----10-----------10--10-13-|-10-12p10-10------------------
|/13-13-12/13-13-----/10-10-|-13b----13p10-13b---13------|------------13-11-10-10h11p10-
|/14-14-13/14-14--14\-------|----------------------------|--------------------12--------
|---------------------------|----------------------------|------------------------------
|---------------------------|----------------------------|------------------------------
|---------------------------|----------------------------|------------------------------

|---------------------------------|-----------------------|---------------------------|
|-10-13-10br----10----------------|-----------------------|---------------------------|
|------------12----12-10----10-12-|-12br-10-12-12p10-~-10-|-12-12br-10-9-10-9h10p9----|
|------------------------12-------|-----------------------|------------------------12-|
|---------------------------------|-----------------------|---------------------------|
|---------------------------------|-----------------------|---------------------------|

|------------------|-----------------|
|------------------|-----------------|
|-9---------10--9--|--(9)-~-~-~-~-~--|
|----10--12--------|-----------------|
|------------------|-----------------|
|------------------|-----------------|

riff 8
(10:20)
|-------------------|-----------------||----------------|
|-------------------|-----------------||----------------|
|-------------------|-----------------||----------------|
|-------------------|--2--------------||--------------3-|
|-5---------------5-|--0--------------||--5-------3---1-|
|-3---------------3-|-----------------||--3-------1-----|

|-------------------|-----------------|-------------------|
|-------------------|-----------------|-------------------|
|-------------------|-----------------|-------------------|
|-----------------3-|---------------3-|-------------3---8-|
|-------------3---1-|-----------3---1-|-------------3---6-|
|-------------1-----|-----------1-----|-------------------|

|----------------|----------------|----------------|
|----------------|----------------|----------------|
|----------------|----------------|----------------|
|----------------|----------------|----------------|
|-8-----8--6---8-|-------8--6---8-|-------8--6---8-|
|-6-----6--4---6-|-------6--4---6-|-------6--4---6-|

riff 9 –backing for solo-
(10:35)
|------------------|
|------------------|
|----------------5-|
|--------------5-3-|
|-555555555555-3---|
|------------------|
   ************
|--------------------------------|
|--------------------------------|
|------------------------------5-|
|--------------7---------------3-|
|-222222222222-5--222222222222---|
|--------------------------------|
   ************    ************
|------------------------------|
|------------------------------|
|------------------------------|
|--------------7---------------|
|-222222222222-5-------------3-|
|-----------------0--2-3--5----|
   ************  
|--------------------------------|
|--------------------------------|
|------------------------------5-|
|--------------7---------------3-|
|-222222222222-5--222222222222---|
|--------------------------------|
   ************    ************
|------------------------------|
|------------------------------|
|------------------------------|
|--------------7---------------|
|-222222222222-5-------------3-|
|-----------------0--2-3--5----|
   ************  
riff 9a –solo over riff 9-
(10:35)
|------------------||--------------------------------------------------|
|------------------||----.-.-.-.-.-.-.-.-.-.-.-.-.-.-.-.-.-.-.-.-.-.-.-|
|------------------||-10b-10-10-10-10-10-10-10-10-10-10-10-10-10-10-10-|
|-------8---6---10-||--------------------------------------------------|
|-------6---6---10-||--------------------------------------------------|
|-------6---4----8-||--------------------------------------------------|


  AH    AH    AH    AH    AH    AH                    hold bend
|------------------------------------------------------|
|-.-.-.-.-.-.-.-.-.-.-.-.-.-.-.-.-.-------------------.|
|-10-10-10-10-10-10-10-10-10-10-10-10b-10b-10b-10b-10b-|
|------------------------------------------------------|
|------------------------------------------------------|
|------------------------------------------------------|


w/Rhy.Fig.14                       AH~~~~~~
|------------------------------------------|
|-.-.--------------------------------------|
|--(10)p8----8-10p8--------------8-8-------|
|---------10--------10-8----8-10-----------|
|------------------------10----------------|
|------------------------------------------|


     ~~~ AH
|------------------------------------|-8---x-8---x-8---10---x-10---x--10-|
|------------------------------------|-8---x-8---x-8---10---x-10---x--10-|
|--------8--10-10p8------------------|-8---x-8---x-8---10---x-10---x--10-|
|-8-10--------------10-8-10-10-10-10-|-----------------------------------|
|------------------------------------|-----------------------------------|
|------------------------------------|-----------------------------------|



|-11---x--11---x--11--10--x--10--x--10-|-8---x--8---x--8--10--x--10--------|
|-11---x--11---x--11--10--x--10--x--10-|-8---x--8---x--8--10--x--10--------|
|-11---x--11---x--11--10--x--10--x--10-|-8---x--8---x--8--10--x--10--10-10-|
|--------------------------------------|-----------------------------------|
|--------------------------------------|-----------------------------------|
|--------------------------------------|-----------------------------------|


                                      
|-------8--------8---------------||-||--------------------|
|-----8--------8-----------------||-||-o----------------o-|
|-10b------10b------10b--/16--14-||-||--------------------|
|--------------------------------||-||-o16~~~~~~~~~~~~~-o-|
|--------------------------------||-||--------------------|
|--------------------------------||-||--------------------|

SATANS FALL

Riff 1a –same as riff 1, with dif. end-
(10:50)
|---------------------------------------|---------------|
|---------------------------------------|---------------|
|---------------------------------------|---------------|
|------------4p0---------4p0---------4p0|----------0h5--|
|---------------------------------------|------0h2------|
|-------0--2------2p0--2------2p0--2----|--0h2----------|

|---------------------------------------|---------------|
|---------------------------------------|---------------|
|---------------------------------------|---------------|
|------------4p0---------4p0---------4p0|--4--2---------|
|---------------------------------------|--2--0---------|
|-------0--2------2p0--2------2p0--2----|---------------|

|---------------------------------------|---------------|
|---------------------------------------|---------------|
|---------------------------------------|---------------|
|------------4p0---------4p0---------4p0|----------0h5--|
|---------------------------------------|------0h2------|
|-------0--2------2p0--2------2p0--2----|--0h2----------|

|---------------------------------------|---------------|
|---------------------------------------|---------------|
|---------------------------------------|---------------|
|------------4p0---------4p0---------4p0|--4--2---------| END
|---------------------------------------|--2--0--4--4\--|
|-------0--2------2p0--2------2p0--2----|--------2--2\--|

enjoy. it took me about 2 months to learn this song, but it is pretty long.





Comments


Popular Metallica tabs & chords
Attitude Bass Tabs
Cunning Stunts Doodle Bass Tabs
Fuel 2 Bass Tabs
Hit The Lights 2 Bass Tabs
Blackened 5 Tabs
Cure Tabs
It's Electric Tabs
Ronnie 2 Tabs
The Memory Remains 1 Tabs
Whiplash Intro Tabs


Song lyrics



↑ Back to top | Tablatures and chords are parodies/interpretations of the original songs. You may use it for private study, scholarship, research or language learning purposes only
© 2014 AZChords.com Contact us | Privacy policy | DMCA | Add/correct tabs | Request tabs | Top 50 tabs