» » »

Master Of Puppets Slow Tabs (ver.1)

Artists:  A B C D E F G H I J K L M N O P Q R S T U V W X Y Z # 

Master Of Puppets Slow Tabs (ver.1)

Metallica
Rating:
0/5 (0 votes)

Tabs too difficult? Try these video lessons and learn fast.
                e|----/19-15----17-----------------17-14----15-----------------|
B|-17--------17----15-15--15-15-15-------15----13-13--13-13-13-|
G|-------------------------------------------------------------|
D|-------------------------------------------------------------|
A|-------------------------------------------------------------|
E|-------------------------------------------------------------|

e|-15-12----14-12h14p12-11-------------------11-12-14-|
B|-------13----------------13-12-13-15-13-15----------|
G|----------------------------------------------------|
D|----------------------------------------------------|
A|----------------------------------------------------|
E|----------------------------------------------------|
            
Tabs too difficult? Try these video lessons and learn fast.




comments powered by Disqus
↑ Back to top | Tablatures and chords are parodies/interpretations of the original songs. You may use it for private study, scholarship, research or language learning purposes only