» » »

Little Wing Bass tabs (ver.1)

Artists:  A B C D E F G H I J K L M N O P Q R S T U V W X Y Z # 

Little Wing Bass tabs (ver.1)

Metallica
Rating:
0/5 (0 votes)

Hard to play? Try these video lessons and learn fast.
                Tuning - Eb

|------------------|-------------------------|
|------------------|-------------------------|
|------------------|--7----7----7--7h-7/-----|
|------------------|--------------------0-2--|

----------------------|-----------------------------|
-------------------5--|--7--------------------5-----|
-------5--------------|-------7-------5--7--7---7-5-|
--3---------3---------|------------5----------------|

-----9--9-------------------|------------------------|
----------------------------|------------------------|
--7----------7-7-7--7-------|-------9----------9-----|
----------------------4-5-6-|--7---------7--7-----6--|

----------------------------|-------------------------|-------------|
------------7-----3--3-2-3--|--5--5--5--6--3-----3/---|-------------|
--------5h7----3------------|-----------------3-------|--3----3--3--|
--5--5----------------------|-------------------------|-------------|

--7--------------4--4-5--5-6--6-|--7----------------|
-----4--5--6--7-----------------|-------------------|
--------------------------------|-------------------|
--------------------------------|-------------------|

-----------------------------|------------------------|
-------9----9----------------|--5--5-------5--5----5--|
--7------------7--7--7-5-----|-----------5------------|
-------------------------7-5-|------------------------|

--------------------------|--------9-----------------|
--7---------------------5-|--------------------------|
-------7----------4-5-7---|--7--7-----7-----------7/-|
------------5--5----------|-------------7-0--0-------|

--------------------------|---------------------------|
------------9--9--10--12--|---------------------------|
-------9------------------|--------7/---3---5--5-6-7--|
--7-----------------------|--5--5-------5-5-----------|

----------------------------|-------------8---|
--------5------3------------|-----------8-----|
-----5----5------3----------|--7-7--7-6-------|
--3---------3------1--1--1--|-----------------|
            
Hard to play? Try these video lessons and learn fast. | Correct




comments powered by Disqus
↑ Back to top | Tablatures and chords are parodies/interpretations of the original songs. You may use it for private study, scholarship, research or language learning purposes only