» » »

Metallica, Last Caress - Cunning Stunts Tabs (ver.1)

Artists:  A B C D E F G H I J K L M N O P Q R S T U V W X Y Z # 

Last Caress - Cunning Stunts Tabs (ver.1)

Metallica Tabs
 Rating:
4/5 (4 votes)
Last Caress - Cunning Stunts lessons Tabs too difficult? Try these video lessons and learn fast
1
                i got something..         | i kill ur baby...
e-------------------------|----------------------------------|
B-------------------------|----------------------------------|
G-------------------------|------------------10--12--10------|
D--10-----------3--5------|-----10-----------10--12--10--12--|
A--10-----------3--5------|-----10------------8--10---8--12--|
E---8-----------1--3------|------8-----------------------10--|

verse

e-------------------------------------------------|
B-------------------------------------------------|
G-------------------10--12--------------------10--|
D--10---------------10--12--10----------------10--|
A--10----------------8--10--10-----------------8--|
E---8-8-8-8-8-8-8-8----------8-8-8-8-8-8-8-8------|
    p.m............


i got something to say.......
e---------------------------------------------------|
B---------------------------------------------------|
G-------------------10--12--------------------10-12-|
D--10---------------10--12--10----------------10-12-|
A--10----------------8--10--10-----------------8-10-|
E---8-8-8-8-8-8-8-8----------8-8-8-8-8-8-8-8--------|
    p.m............          p.m............

e------------------------------------------------------|
B------------------------------------------------------|
G--10---10---------------------------------------------|
D--10---10-----12----12--------10--10------------------|
A---8-8-8-8-8--12----12--------10--10------------------|
E--------------10-10-10-10-10---8-8-8-8-8-8-8-8-8-8-8--|
p.m.  .    . .    .      .  .     .   ...............

Ooh lovely death.......
e-----------------------------------------------------------------|
B-----------------------------------------------------------------|
G-----------------------------------------------------------------|
D------3---3------5---5-------------------------------------------|
A------3---3------5---5------10-10-10-10-9-9-9-9-7-7-7-7-7-7-7-7--|
E------1-1-1-1-1--3-3-3-3-3---8--8--8--8-7-7-7-7-5-5-5-5-5-5-5-5--|
p.m.     .   . .    .   . .   ..................................

e--------------------------------------------------------------------------------|
B--------------------------------------------------------------------------------|
G----------------------------------------101010-12-12--------------101010-12-12--|
D------3---3------5---5------10----------101010-12-12--10----------101010-12-12--|
A------3---3------5---5------10----------8-8-8--10-10--10-----------8-8-8-10-10--|
E------1-1-1-1-1--3-3-3-3-3---8-8-8-8-8-----------------8-8-8-8-8----------------|
p.m.     .   . .    .   . .     .......                 .........


thatz all wot u need to play this song. listen to the cd or DvD to when u hav to each
            
Submit corrections

comments powered by Disqus
↑ Back to top | Metallica Tabs for Last Caress - Cunning Stunts. Lyrics for acoustic guitar and electric guitar. 1 Tablatures and chords are parodies/interpretations of the original songs. You may use it for private study, scholarship, research or language learning purposes only