>
 >
Last Careless

Last Careless Guitar Tabs

Metallica - Last Careless chords, tabs, tablatures, lyrics

Guitar lessons | Add/correct | Request | Top 50 tabs Artists:  A B C D E F G H I J K L M N O P Q R S T U V W X Y Z 0-9

Last Careless Guitar Tabs – Metallica

CD, Sheet music, Poster

Do you like Last Careless? Share with your friends now
Tabs
Words:          Glenn Danzig
Music:          Glenn Danzig
Tempo:          185, Fast Rock
                (check for more quality tabs, and scanned tabs)
Last edit:      28-Jan-2001
Parts:          Just play everything 'downstairs'
Missing:        Nothing
Other tabs 	
made by me:     Metallica - Am I Evil
                Metallica - Blitzkrieg
                Metallica - Enter Sandman
                Metallica - For Whom The Bell Tolls
                Metallica - Free Speech For The Dumb
                Metallica - Motorbreath
                Metallica - Orion
                Metallica - So What
                Metallica - The Unforgiven
                Metallica - Wiskey In The Jar


Another cover from Metallica. I've split Last Careless and Green Hell in two files.
The two songs are recorded as one song.

If you want to add this tab on your site then please leave the tab as it is. If you are not sure
that you have the orginal tab mail me. Also, if somebody is using my tab then please mail me.

If you see any white lines between the guitar lines, then make sure you resolution is 
1024 x 768 or greater and that you are using Notepad.

Well, let's play this song.



 4/4
  Gtr I
   W           +H      Q   Q     W           +H      Q   Q
|-----------|-----------------|-----------|-----------------|
|-----------|-----------------|-----------|-----------------|
|-----------|---------10--12--|-----------|---------10--12--|
|-----------|---------10--12--|-----------|---------10--12--|
|-10--------|-(10)-----8--10--|-10--------|-(10)-----8--10--|
|--8--------|--(8)------------|--8--------|--(8)------------|


   W          W
|-----------|----------|
|-----------|----------|
|-10--------|-7--------|
|-10--------|-7--------|
|--8--------|-5--------|
|-----------|----------|


     PM---------------------|
     Q  E E E E E E   E E E E  Q   Q   4x
||------------------|------------------||
||o-----------------|-----------------o||
||------------------|---------10--12---||
||------------------|---------10--12---||
||o-10--------------|----------8--10--o||
||---8--8-8-8-8-8-8-|-8-8-8-8----------||


      PM         PM|      PM       PM|
   Q  E  E  +Q   E E   Q  E E +Q   E E
|--------------------|-----------------|
|--------------------|-----------------|
|-10----10-(10)------|-7----7-(7)------|
|-10----10-(10)------|-7----7-(7)------|
|--8--8--8--(8)--8-8-|-5--5-5-(5)--5-5-|
|--------------------|-----------------|


      PM|     PM|                 PM|
   Q  E E  Q  E E   E  E E  E  Q  E E
|-----------------|-------------------|
|-----------------|-------------------|
|-----------------|-------------------|
|-----------------|-------------------|
|-10------10------|-9S10---10-10------|
|--8--8-8--8--8-8-|-7S=8----8--8--8-8-|


     PM       PM|      PM       PM|
  Q  E E +Q   E E   Q  E E +Q   E E
|-----------------|-----------------|
|-----------------|-----------------|
|-----------------|-----------------|
|-----------------|-----------------|
|-3----3-(3)------|-5----5-(5)------|
|-1--1-1------1-1-|-3--3-3-(3)--3-3-|


  PM------------------------------|
  E E E E E E E E   E E E E E E E E
|-----------------|-----------------|
|-----------------|-----------------|
|-----------------|-----------------|
|-----------------|-----------------|
|-----7-------7---|-----------------|
|-8-8---8-7-7---7-|-5-5-5-5-5-5-5-5-|


     PM       PM|      PM       PM|
  Q  E E +Q   E E   Q  E E +Q   E E
|-----------------|-----------------|
|-----------------|-----------------|
|-----------------|-----------------|
|-----------------|-----------------|
|-3----3-(3)------|-5----5-(5)------|
|-1--1-1------1-1-|-3--3-3-(3)--3-3-|


        PM--------|
     Q  E E E E E E    E  E  E  E  +Q    Q
||------------------|------------------------||
||o-----------------|-----------------------o||
||------------------|-10-10-10-12-(12)--12---||
||------------------|-10-10-10-12-(12)--12---||
||o-10--------------|--8--8--8-10-(10)--10--o||
||---8--8-8-8-8-8-8-|------------------------||


     PM---------------------|
     Q  E E E E E E   E E E E  Q   Q
||------------------|------------------||
||o-----------------|-----------------o||
||------------------|---------10--12---||
||------------------|---------10--12---||
||o-10--------------|----------8--10--o||
||---8--8-8-8-8-8-8-|-8-8-8-8----------||


      PM         PM|      PM       PM|
   Q  E  E  +Q   E E   Q  E E +Q   E E
|--------------------|-----------------|
|--------------------|-----------------|
|-10----10-(10)------|-7----7-(7)------|
|-10----10-(10)------|-7----7-(7)------|
|--8--8--8--(8)--8-8-|-5--5-5-(5)--5-5-|
|--------------------|-----------------|


      PM|     PM|                 PM|
   Q  E E  Q  E E   E  E E  E  Q  E E
|-----------------|-------------------|
|-----------------|-------------------|
|-----------------|-------------------|
|-----------------|-------------------|
|-10------10------|-9S10---10-10------|
|--8--8-8--8--8-8-|-7S=8----8--8--8-8-|


     PM       PM|      PM       PM|
  Q  E E +Q   E E   Q  E E +Q   E E
|-----------------|-----------------|
|-----------------|-----------------|
|-----------------|-----------------|
|-----------------|-----------------|
|-3----3-(3)------|-5----5-(5)------|
|-1--1-1------1-1-|-3--3-3-(3)--3-3-|


  PM------------------------------|
  E E E E E E E E   E E E E E E E E
|-----------------|-----------------|
|-----------------|-----------------|
|-----------------|-----------------|
|-----------------|-----------------|
|-----7-------7---|-----------------|
|-8-8---8-7-7---7-|-5-5-5-5-5-5-5-5-|


     PM       PM|      PM       PM|
  Q  E E +Q   E E   Q  E E +Q   E E
|-----------------|-----------------|
|-----------------|-----------------|
|-----------------|-----------------|
|-----------------|-----------------|
|-3----3-(3)------|-5----5-(5)------|
|-1--1-1------1-1-|-3--3-3-(3)--3-3-|


        PM--------|
     Q  E E E E E E    E  E  E  E  +Q    Q
||------------------|------------------------||
||o-----------------|-----------------------o||
||------------------|-10-10-10-12-(12)--12---||
||------------------|-10-10-10-12-(12)--12---||
||o-10--------------|--8--8--8-10-(10)--10--o||
||---8--8-8-8-8-8-8-|------------------------||


     PM---------------------|
     Q  E E E E E E   E E E E  Q   Q
||------------------|------------------||
||o-----------------|-----------------o||
||------------------|---------10--12---||
||------------------|---------10--12---||
||o-10--------------|----------8--10--o||
||---8--8-8-8-8-8-8-|-8-8-8-8----------||


      PM         PM|      PM       PM|
   Q  E  E  +Q   E E   Q  E E +Q   E E
|--------------------|-----------------|
|--------------------|-----------------|
|-10----10-(10)------|-7----7-(7)------|
|-10----10-(10)------|-7----7-(7)------|
|--8--8--8--(8)--8-8-|-5--5-5-(5)--5-5-|
|--------------------|-----------------|


      PM|     PM|                 PM|
   Q  E E  Q  E E   E  E E  E  Q  E E
|-----------------|-------------------|
|-----------------|-------------------|
|-----------------|-------------------|
|-----------------|-------------------|
|-10------10------|-9S10---10-10------|
|--8--8-8--8--8-8-|-7S=8----8--8--8-8-|


     PM       PM|      PM       PM|
  Q  E E +Q   E E   Q  E E +Q   E E
|-----------------|-----------------|
|-----------------|-----------------|
|-----------------|-----------------|
|-----------------|-----------------|
|-3----3-(3)------|-5----5-(5)------|
|-1--1-1------1-1-|-3--3-3-(3)--3-3-|


  PM------------------------------|
  E E E E E E E E   E E E E E E E E
|-----------------|-----------------|
|-----------------|-----------------|
|-----------------|-----------------|
|-----------------|-----------------|
|-----7-------7---|-----------------|
|-8-8---8-7-7---7-|-5-5-5-5-5-5-5-5-|


     PM       PM|      PM       PM|
  Q  E E +Q   E E   Q  E E +Q   E E
|-----------------|-----------------|
|-----------------|-----------------|
|-----------------|-----------------|
|-----------------|-----------------|
|-3----3-(3)------|-5----5-(5)------|
|-1--1-1------1-1-|-3--3-3-(3)--3-3-|


        PM--------|
     Q  E E E E E E    E  E  E  E  +Q    Q   4x
||------------------|------------------------||
||o-----------------|-----------------------o||
||------------------|-10-10-10-12-(12)--12---||
||------------------|-10-10-10-12-(12)--12---||
||o-10--------------|--8--8--8-10-(10)--10--o||
||---8--8-8-8-8-8-8-|------------------------||


   W           +H      Q   Q
|-----------|-----------------|
|-----------|-----------------|
|-----------|---------10--12--|   The track continues with Green Hell
|-----------|---------10--12--|
|-10--------|-(10)-----8--10--|
|--8--------|--(8)------------|


Duration Legend
---------------
W - whole; 
H - half; 
Q - quarter; 
E - 8th; 
S - 16th; 
T - 32nd; 
X - 64th; 
a - acciaccatura
+ - note tied to previous; 
. - note dotted; 
.. - note double dotted
Uncapitalized letters represent notes that are staccato (1/2 duration)
Irregular groupings are notated above the duration line
Duration letters will always appear directly above the note/fret number it represents the
duration for.  Duration letters with no fret number below them represent rests.  Multi-
bar rests are notated in the form Wxn, where n is the number of bars to rest for.  Low
melody durations appear below the staff

Tablature Legend
----------------
 h   - hammer-on
 p   - pull-off
 b   - bend
 pb  - pre-bend
 r   - bend release (if no number after the r, then release immediately)
 /\  - slide into or out of (from/to "nowhere")
 s   - legato slide
 S   - shift slide
<n>  - natural harmonic
[n]  - artificial harmonic
n(n) - tapped harmonic
 ~   - vibrato
 tr  - trill
 T   - tap
 TP  - trem. picking
 PM  - palm muting
\n/  - tremolo bar dip; n = amount to dip
 \n  - tremolo bar down
 n/  - tremolo bar up
/n\  - tremolo bar inverted dip
 =   - hold bend; also acts as connecting device for hammers/pulls
 <>  - volume swell (louder/softer)
 x   - on rhythm slash represents muted slash
 o   - on rhythm slash represents single note slash

Misc Legend
-----------
 |  - bar
||  - double bar
||o - repeat start
o|| - repeat end
*|  - double bar (ending)
 :  - bar (freetime)
 $  - Segno
 &  - Coda
Tempo markers - <E/E./Q/Q./H/H.> = BPM(8/16=s8/s16), where s8 = swing 8ths, s16 = swing 16ths


***************************************************************************************
***************************************************************************************





Comments


Popular Metallica tabs & chords
Bass/Guitar Doodle 1 Bass Tabs
Cliff Burton Memorial 1 Bass Tabs
Devils Dance 2 Bass Tabs
Astronomy 4 Tabs
Better Than You 2 Tabs
Death Is Not The End Intro Tabs
Dirty Window 1 Tabs
King Nothing Tabs
Mexico City Riff Tabs
Trapped Under Ice 2 Tabs


Song lyrics



↑ Back to top | Tablatures and chords are parodies/interpretations of the original songs. You may use it for private study, scholarship, research or language learning purposes only
© 2014 AZChords.com Contact us | Privacy policy | DMCA | Add/correct tabs | Request tabs | Top 50 tabs