» » »

Metallica, La Bamba Tabs (ver.2)

Artists:  A B C D E F G H I J K L M N O P Q R S T U V W X Y Z # 

La Bamba Tabs (ver.2)

Metallica Tabs
 Rating:
4/5 (4 votes)
La Bamba lessons Tabs too difficult? Try these video lessons and learn fast
                
|-----------------------3------------------------------------------------------------------|
|-------------------------3-------------------------6-6-6-6-6-5------6-6-6-6-6-5-----------|
|---------------2-0-2/4-----4-0----------------2-0--------------5~~~-------------5--5-5-5-7|
|---------0-2-3--------------------------0-2-3---------------------------------------------|
|---0-2-3--------------------------0-2-3---------------------------------------------------|
|-3------------------------------3---------------------------------------------------------|


|------------------------------------------------------------------|
|------6-5---5--------6-6-6-6-6-5------------5-------6-5---5-------|
|-4--7-----7---5~~~---------------7-5--5-5-7---5---7-----7---5~~~--|
|------------------------------------------------------------------|
|------------------------------------------------------------------|
|------------------------------------------------------------------|


|----------------------------------------------------------------------------|
|----------------------------------------------------------------------------|
|-5--2--4--0-0-0-0--5--2--4--0-0-0-0-0-0--5--2--4--0-0-0-0-0-0--5-5-5-5-5~~~-|
|----------------------------------------------------------------------------|
|----------------------------------------------------------------------------|
|----------------------------------------------------------------------------|

       pm............        .............       ..............       ..............
|------------------------------------------------------------------------------------|
|------------------------------------------------------------------------------------|
|------------------------------------------------------------------------------------|
|------------------------------------------------------------------------------------|
|-2--3--3-3-3-3-3-3-3--2--3--3-3-3-3-3-3-3--2--3--3-3-3-3-3-3-3--2--3--3-3-3-3-3-3-3-|
|-0--1--1-1-1-1-1-1-1--0--1--1-1-1-1-1-1-1--0--1--1-1-1-1-1-1-1--0--1--1-1-1-1-1-1-1-|
            
Submit corrections

comments powered by Disqus
↑ Back to top | Metallica Tabs for La Bamba. Lyrics for acoustic guitar and electric guitar. Tablatures and chords are parodies/interpretations of the original songs. You may use it for private study, scholarship, research or language learning purposes only