>
 >
Just A Bullet Away

Just A Bullet Away Bass Tabs

Metallica - Just A Bullet Away chords, tabs, tablatures, lyrics

Guitar lessons | Add/correct | Request | Top 50 tabs Artists:  A B C D E F G H I J K L M N O P Q R S T U V W X Y Z 0-9

Just A Bullet Away Bass Tabs – Metallica

CD, Sheet music, Poster

Do you like Just A Bullet Away? Share with your friends now
Bass TabsTabs
-------------------------------------------------------------------------------
                             Just A Bullet Away - Metallica
-------------------------------------------------------------------------------

this song uses a 5 string, if 4 string knock off the G and down tune BEAD
(this can be played in drop D, but i like my 5string more :P)

MetallicaDMRTL

Tuning:BEADG
6 hi hats before intro
G|---------|--------|-----------|
D|---------|--------|-----------|
A|-5-3---6-|-5-3-5--|-5-3---(6)-| x2
E|-----4---|--------|-----4-----|
B|---------|--------|-----------|

G|---------|--------|-----------|
D|---------|--------|-----------|
A|-5-3---6-|-5-3-5--|-5-3-------| 
E|-----4---|--------|-----4-----|
B|---------|--------|-------(4)-|

G|---------|--------|-----------|
D|---------|--------|-----------|
A|-5-3---6-|-5-3-5--|-5-3---(6)-| 
E|-----4---|--------|-----4-----|
B|---------|--------|-----------|

G|---------|--------|-----------|
D|---------|--------|-----------|
A|-5-3---6-|-5-3-5--|-5-3-------| 
E|-----4---|--------|-----4-----|
B|---------|--------|-------(4)-|

G|---------|--------|-----------|
D|---------|--------|-----------|
A|-5-3---6-|-5-3-5--|-5-3---(6)-| 
E|-----4---|--------|-----4-----|
B|---------|--------|-----------|

G|---------|    |---------|
D|---------|    |---------|
A|-5-3---6-| x7 |---------|
E|-----4---|    |-4-3-1---|
B|---------|    |-------4-|

G|---------------------------------------------------------|
D|---------------------------------------------------------|
A|---------------------------------------------------------| x3
E|---------------------------------------------------------|
B|-3-333-3-3-3-333-3-3-3-333-3-3-3-333-3-3-3-333-3-3-3-333-|

G|-----------|-----------|-------------------|
D|-----------|-----------|-------------------|
A|-----------|-----------|-------------------|
E|-----------|-----------|-------------------|
B|-0-1-2-3-3-|-0-1-2-3-3-|-0-1-3-4-4-4-4-4-4-|

G|-----------|-----------|---------------------|
D|-----------|-----------|---------------------|
A|-----------|-----------|-5-4-------5-4-8-7---|
E|-----------|-----------|-----5-5-4---------6-|
B|-0-1-2-3-3-|-0-1-2-3-3-|---------------------|

G|-----------|-----------|-------------------|
D|-----------|-----------|-------------------|
A|-----------|-----------|-------------------|
E|-----------|-----------|-------------------|
B|-0-1-2-3-3-|-0-1-2-3-3-|-0-1-3-4-4-4-4-4-4-|

G|-----------|-----------|-----------------|
D|-----------|-----------|-----------------|
A|-----------|-----------|-----------------|
E|-----------|-----------|-----------------|
B|-0-1-2-3-3-|-0-1-2-3-3-|-4-4--4-4--4-6-4-|

G|-----------|-----------|-------------------|
D|-----------|-----------|-------------------|
A|-----------|-----------|-------------------|
E|-----------|-----------|-------------------|
B|-0-1-2-3-3-|-0-1-2-3-3-|-0-1-3-4-4-4-4-4-4-|

G|-----------|-----------|---------------------|
D|-----------|-----------|---------------------|
A|-----------|-----------|-5-4-------5-4-8-7---|
E|-----------|-----------|-----5-5-4---------6-|
B|-0-1-2-3-3-|-0-1-2-3-3-|---------------------|

G|-----------|-----------|-------------------|
D|-----------|-----------|-------------------|
A|-----------|-----------|-------------------|
E|-----------|-----------|-------------------|
B|-0-1-2-3-3-|-0-1-2-3-3-|-0-1-3-4-4-4-4-4-4-|

G|-----------|-----------|-----------------|
D|-----------|-----------|-----------------|
A|-----------|-----------|-----------------|
E|-----------|-----------|-----------------|
B|-0-1-2-3-3-|-0-1-2-3-3-|-4-4--4-4--4-6-4-|

G|---------------------------------------------|
D|---------------------------------------------|
A|---------------------------------------------| x2
E|---------------------------------------------|
B|-3-3-3-3-3-3-3-3-3-3-3-3-4p3-4p3-4p3-4-6-7-8-|

G|---------------------------|    |-----------------|      play these 2
D|*--------------------------|    |----------------*|          x4
A|---------------------------| x3 |-----------------| x1   
E|*--------------------------|    |----------------*|        
B|-3-3-3-3-3-3-3-3-4p3-3-4p3-|    |-3-3-3-3-4-6-7-8-|

G|-----------|-----------|-------------------|
D|-----------|-----------|-------------------|
A|-----------|-----------|-------------------|
E|-----------|-----------|-------------------|
B|-0-1-2-3-3-|-0-1-2-3-3-|-0-1-3-4-4-4-4-4-4-|

G|-----------|-----------|---------------------|
D|-----------|-----------|---------------------|
A|-----------|-----------|-5-4-------5-4-8-7---|
E|-----------|-----------|-----5-5-4---------6-|
B|-0-1-2-3-3-|-0-1-2-3-3-|---------------------|

G|-----------|-----------|-------------------|
D|-----------|-----------|-------------------|
A|-----------|-----------|-------------------|
E|-----------|-----------|-------------------|
B|-0-1-2-3-3-|-0-1-2-3-3-|-0-1-3-4-4-4-4-4-4-|

G|-----------|-----------|-----------------|
D|-----------|-----------|-----------------|
A|-----------|-----------|-----------------|
E|-----------|-----------|-----------------|
B|-0-1-2-3-3-|-0-1-2-3-3-|-4-4--4-4--4-6-4-|

G|---------------------------|    |-----------------|      play these 2
D|*--------------------------|    |----------------*|          x2
A|---------------------------| x3 |-----------------| x1   
E|*--------------------------|    |----------------*|        
B|-3-3-3-3-3-3-3-3-4p3-3-4p3-|    |-3-3-3-3-4-6-7-8-|

G|-----------------------|
D|-----------------------|
A|-5-3---6-5-3-5---------| x4
E|-----4---------4-3-1---|
B|---------------------3-|

G|-----------------------|
D|-----------------------|
A|-7-5---8-7-5-7---------| x4
E|-----6---------6-5-----|
B|-------------------8-5-|

G|------------------------|
D|------------------------|
A|-9-7---10-9-7-9---------| x3
E|-----8----------8-7-5---|
B|----------------------7-|

G|-------------|
D|-------------|
A|-------------| 
E|-------------|
B|-x/x/x/x/x/x-|

G|---------------------------------------------------------|
D|---------------------------------------------------------|
A|---------------------------------------------------------| 
E|---------------------------------------------------------|
B|-3-333-3-3-3-333-3-3-3-333-3-3-3-333-3-3-3-333-3-3-3-333-|

G|-----------|-----------|-------------------|
D|-----------|-----------|-------------------|
A|-----------|-----------|-------------------|
E|-----------|-----------|-------------------|
B|-0-1-2-3-3-|-0-1-2-3-3-|-0-1-3-4-4-4-4-4-4-|

G|-----------|-----------|---------------------|
D|-----------|-----------|---------------------|
A|-----------|-----------|-5-4-------5-4-8-7---|
E|-----------|-----------|-----5-5-4---------6-|
B|-0-1-2-3-3-|-0-1-2-3-3-|---------------------|

G|-----------|-----------|-------------------|
D|-----------|-----------|-------------------|
A|-----------|-----------|-------------------|
E|-----------|-----------|-------------------|
B|-0-1-2-3-3-|-0-1-2-3-3-|-0-1-3-4-4-4-4-4-4-|

G|-----------|-----------|-----------------|
D|-----------|-----------|-----------------|
A|-----------|-----------|-----------------|
E|-----------|-----------|-----------------|
B|-0-1-2-3-3-|-0-1-2-3-3-|-4-4--4-4--4-6-4-|

G|---------------------------------------------|
D|---------------------------------------------|
A|---------------------------------------------| x2
E|---------------------------------------------|
B|-3-3-3-3-3-3-3-3-3-3-3-3-4p3-4p3-4p3-4-6-7-8-|

G|---------------------------|    |-----------------|      play these 2
D|*--------------------------|    |----------------*|          x4
A|---------------------------| x3 |-----------------| x1   
E|*--------------------------|    |----------------*|        
B|-3-3-3-3-3-3-3-3-4p3-3-4p3-|    |-3-3-3-3-4-6-7-8-|

G|-----------------------|
D|-----------------------|
A|-5-3---6-5-3-5---------| x4
E|-----4---------4-3-1---|
B|---------------------3-|

G|-----------------------|
D|-----------------------|
A|-7-5---8-7-5-7---------| x4
E|-----6---------6-5-----|
B|-------------------8-5-|

G|------------------------|
D|------------------------|
A|-9-7---10-9-7-9---------| x3
E|-----8----------8-7-5---|
B|----------------------7-|

G|-------------|
D|-------------|
A|-------------| 
E|-------------|
B|-x/x/x/x/x/x-|

G|-------------|---------|
D|-------------|---------|
A|-------------|---------| x4
E|-------------|---------|
B|-10-10-10-10-|-4-4-4-4-|

G|--------------------------------------|
D|--------------------------------------|      note: the "h" & "p" are smooth
A|--------------------------------------| x2           and slow but there
E|--------------------------------------|
B|-10-10-10-10h12p8-8h10p6-6h8p5-5-5-5/-|

G|-------------------------|-------------------------|
D|-------------------------|-------------------------|
A|-0-0-0-0-0-0-0-0-0-0-0-0-|-6-6-6-6-6-6-6-6-6-6-6-6-| x6
E|-------------------------|-------------------------|
B|-------------------------|-------------------------|

G|------------------------------------------------|
D|------------------------------------------------|
A|------------------------------------------------|
E|-5-5-5-5-5-5-3-3-3-3-3-3-1-1-1-1-1-1-0-0-0-0-0-0|
B|------------------------------------------------|

G|---------------------------------------------|
D|---------------------------------------------|
A|-------------------------------------7-6-5---|
E|-5-5-5-5-7-5-3-3-3-3-5-3-1-1-1-1-3-1-------1-|
B|---------------------------------------------|

G|---------------------------------------------------------|
D|---------------------------------------------------------|
A|---------------------------------------------------------| 
E|---------------------------------------------------------|
B|-3-333-3-3-3-333-3-3-3-333-3-3-3-333-3-3-3-333-3-3-3-333-|

G|-----------|-----------|-------------------|
D|-----------|-----------|-------------------|
A|-----------|-----------|-------------------|
E|-----------|-----------|-------------------|
B|-0-1-2-3-3-|-0-1-2-3-3-|-0-1-3-4-4-4-4-4-4-|

G|-----------|-----------|---------------------|
D|-----------|-----------|---------------------|
A|-----------|-----------|-5-4-------5-4-8-7---|
E|-----------|-----------|-----5-5-4---------6-|
B|-0-1-2-3-3-|-0-1-2-3-3-|---------------------|

G|-----------|-----------|-------------------|
D|-----------|-----------|-------------------|
A|-----------|-----------|-------------------|
E|-----------|-----------|-------------------|
B|-0-1-2-3-3-|-0-1-2-3-3-|-0-1-3-4-4-4-4-4-4-|

G|-----------|-----------|-----------------|
D|-----------|-----------|-----------------|
A|-----------|-----------|-----------------|
E|-----------|-----------|-----------------|
B|-0-1-2-3-3-|-0-1-2-3-3-|-4-4--4-4--4-6-4-|

G|---------------------------------------------|
D|---------------------------------------------|
A|---------------------------------------------| x2
E|---------------------------------------------|
B|-3-3-3-3-3-3-3-3-3-3-3-3-4p3-4p3-4p3-4-6-7-8-|

G|---------------------------|    |-----------------|      play these 2
D|*--------------------------|    |----------------*|          x4
A|---------------------------| x3 |-----------------| x1   
E|*--------------------------|    |----------------*|        
B|-3-3-3-3-3-3-3-3-4p3-3-4p3-|    |-3-3-3-3-4-6-7-8-|

G|-----------------------|
D|-----------------------|
A|-5-3---6-5-3-5---------| x4
E|-----4---------4-3-1---|
B|---------------------3-|

G|-----------------------|
D|-----------------------|
A|-7-5---8-7-5-7---------| x4
E|-----6---------6-5-----|
B|-------------------8-5-|

G|------------------------|
D|------------------------|
A|-9-7---10-9-7-9---------| x3
E|-----8----------8-7-5---|
B|----------------------7-|

G|-------------|
D|-------------|
A|-------------| 
E|-------------|
B|-x/x/x/x/x/x-|



i will be working on 

Load, Reload, and Lulu

btw the slow part was 

extremely difficult to hear but i think i got it any suggestions leave me a 

message thanks- and PPS the "A0" and "A6" part sounds right but i imagine 

theres more fills there (maybe)so again message me for ideas thanks again-

                            \m/Metallica\m/





Comments


Popular Metallica tabs & chords
Am I Evil? 2 Tabs
Dazed And Confused Tabs
For Whom The Bell Tolls 3 Tabs
Harvester Of Sorrow 1 Tabs
Hero Of The Day 3 Tabs
I Disappear 2 Tabs
I Disappear 4 Tabs
In Memory Of Cliff Tabs
Last Carress 2 Tabs
Pulling Teeth Tabs


Song lyrics



↑ Back to top | Tablatures and chords are parodies/interpretations of the original songs. You may use it for private study, scholarship, research or language learning purposes only
© 2014 AZChords.com Contact us | Privacy policy | DMCA | Add/correct tabs | Request tabs | Top 50 tabs