>
 >
Jump In The Fire 3

Jump In The Fire 3 Guitar Tabs

Metallica - Jump In The Fire 3 chords, tabs, tablatures, lyrics

Guitar lessons | Add/correct | Request | Top 50 tabs Artists:  A B C D E F G H I J K L M N O P Q R S T U V W X Y Z 0-9

Jump In The Fire 3 Guitar Tabs – Metallica

CD, Sheet music, Poster

Do you like Jump In The Fire 3? Share with your friends now
Bass TabsBass Tabs v2Drum TabsTabsTabs v2Tabs v3Tabs v4Tabs v5
-------------------------------------------------------------------------------
			Jump In The Fire  - METALLICA
-------------------------------------------------------------------------------

Tuning:E A D G B e


| b    bend full
| b(X) bend to note
| b%   bend 1/4
| /    slide up
| \    slide down
| h    hammer-on
| p    pull-off
| ~    vibrato
| +    harmonic
| x    Mute note
| PM   Palm Mute
| (X)  Ghost Note


INTRO & CHORUS:


   PM---------------   PM---------------   PM-------------    C5   Bb5
e:-------------------|-------------------|-----------------|-------------
B:-------------------|-------------------|-----------------|-------------
G:-------------------|-------------------|-----------------|--5----3-----
D:---------3---------|---------3---------|---------3-------|--5----3-----
A:-----3-4---5-4-3p0-|-----3-4---5-4-3p0-|-----3-4---5-4-3-|--3----1-----
E:-3-6---------------|-3-6---------------|-3-6-------------|-------------


   PM---------------   PM-------------     PM-------------    C5   Bb5
e:-------------------|-------------------|-----------------|-------------
B:-------------------|-------------------|-----------------|-------------
G:-------------------|-------------------|-----------------|--5----3-----
D:---------3---------|---------3---------|-3-------3-------|--5----3-----
A:-----3-4---5-4-3p0-|-----3-4---5-4-3---|---5-4-3---5-4-3-|--3----1-----
E:-3-6---------------|-3-6---------------|-----------------|-------------


   PM---------------   PM---------------   PM---------------------------
e:-------------------|-------------------|---------------------|--------------
B:-------------------|-------------------|---------------------|--------------
G:-------------------|-------------------|---------------------|--------------
D:---------3---------|---------3---------|-3h5-3---3-----------|---------3-5--
A:-----3-4---5-4-3p0-|-----3-4---5-4-3p0-|-------5---5-4-4-3---|---3-4-5------
E:-3-6---------------|-3-6---------------|-------------------3-|-6------------


   PM---------------   PM-------------     PM-------------    C5   Bb5
e:-------------------|-------------------|-----------------|----------
B:-------------------|-------------------|-----------------|----------
G:-------------------|-------------------|-----------------|--5----3--
D:---------3---------|---------3---------|-3-------3-------|--5----3--
A:-----3-4---5-4-3p0-|-----3-4---5-4-3---|---5-4-3---5-4-3-|--3----1--
E:-3-6---------------|-3-6---------------|-----------------|----------



VERSE:

   PM---------  Bb5      F         PM---------  C5              C#5
e:----------------|--------------|----------------|----------------
B:----------------|------1--1--1-|----------------|----------------
G:--------------3-|-(3)--2--2--2-|--------------5-|-(5)--x-x-x--6--
D:--------------3-|-(3)--3--3--3-|--------------5-|-(5)--x-x-x--6--
A:--------------1-|-(1)--3--3--3-|--------------3-|-(3)--x-x-x--4--
E:-1-3-3-1-3-0----|------1--1--1-|-1-3-3-1-3-0----|----------------


Guitar 2:
						(only the first time)
e:------------------------3-------------------------------------------
B:--------------------------6p3---3-6p3---3-6p3---3-6p3---------6b7~--
G:------------------5b7b5-------5-------5-------5-------5-3---3-------
D:----------------------------------------------------------5---------
A:--------------------------------------------------------------------
E:--------------------------------------------------------------------



INTERLUDE:

     Bb5                     Ab5Bb5     G5                      F5 G5
e:|-----------------|-----------------|----------------|--------------|-
B:|-----------------|-----------------|----------------|--------------|-
G:|*----------------|-----------------|----------------|-------------*|-
D:|*-8-8-8-8-8--8-8-|-8-8-8--6--8-----|-5-5-5-5-5--5-5-|-5-5-5--3--5-*|-
A:|--8-8-8-8-8--8-8-|-8-8-8--6--8-----|-5-5-5-5-5--5-5-|-5-5-5--3--5--|-
E:|--6-6-6-6-6--6-6-|-6-6-6--4--6-(0)-|-3-3-3-3-3--3-3-|-3-3-3--1--3--|-


   Bb5
e:---------------------------------|------------------------------
B:---------------------------------|------------------------------
G:---------------------------------|------------------------------
D:---------------------------------|------------------------------
A:-8--8-8--8--8-8--8-8-8-8-8-8-8-8-|-8-8-8-8-8-8-8-8-8-8-8-8--8\--
E:-6--6-6--6--6-6--6-6-6-6-6-6-6-6-|-6-6-6-6-6-6-6-6-6-6-6-6--6\--


   G5                                       Bb5          Bb5
e:-----------------|----------------------|------------------|-
B:-----------------|----------------------|------------------|-
G:----------4--4-4-|-4-4-4----------------|------------------|-
D:----------5--5-5-|-5-5-5----------------|------------------|-
A:-5-5-5-5--5--5-5-|-5-5-5--5-5-5-5-5-X-X-|-8--8---------8-8-|-
E:-3-3-3-3--3--3-3-|-3-3-3--3-3-3-3-3-X-X-|-6--6/18--18\-6-6-|-

e:---------------------|----------------------------|----------------------------
B:---------------------|----------------------------|----------------------------
G:---------------------|-4--4--4--4--4-4-4-4-4--4-4-|-4--------------------------
D:---------------------|-5--5--5--5--5-5-5-5-5--5-5-|-5--------------------------
A:-8----------8--------|-5--5--5--5--5-5-5-5-5--5-5-|-5--------------------------
E:-6/18--18\--6/18-18\-|-3--3--3--3--3-3-3-3-3--3-3-|-3--3-3-3-3-3-3-3-3-3-3-3\--



SOLO:

e:|---------------------------|---3-------------|-----3---------------
B:|--6p3p0-------6p3p0--------|-3-3---------6-3-|---3-3-6-------3-----
G:|*-------5p3p0-------5p3p0-*|-----------------|-5---------------5b--
D:|*-------------------------*|-----------------|---------------------
A:|---------------------------|-----------------|---------------------
E:|---------------------------|-----------------|---------------------

         
e:-3------------------|--------15--------------------------|-------------------
B:---6p3--------------|-----15----18p15--------------------|-------------------
G:-------5-5p3---3/15-|-17b-------------17p15-17p15----15\-|---3b%---15---3b%--
D:-------------5------|-----------------------------17-----|---3b%---15---3b%--
A:--------------------|------------------------------------|-0-----0----0------
E:--------------------|------------------------------------|-------------------

e:----------------------|-------------------------------|------------------------
B:----------------0-----|-----3-6p3---3-6p3---3-6p3-----|-6p3--------------------
G:-(3)---15--15\--0--5b-|-(5)-------5-------5-------5\4-|-----5-3---3-5-5b7b5p3--
D:-(3)---15--15\--0-----|-------------------------------|---------5--------------
A:-----0----------------|-------------------------------|------------------------
E:----------------------|-------------------------------|------------------------

e:--------------------|------------------------------|-------------------------------
B:--------------------|------------------------------|-17b18b17--15-----15-17b18b17--
G:---3-5p3------------|------------------------------|-17b19b17--15-----15-17b19b17--
D:-5-------5-3--------|------------------------------|---------------17--------------
A:--------------5-3-1-|-3b5b3--1-----1---------------|-------------------------------
E:--------------------|-----------3-----(3)/15--(12)-|-------------------------------

e:---------------------------|--------15----------------|-----------------------
B:-15----15--17b18b17--15----|-----------18p15----------|-----------------18b~--
G:-15----15--17b19b17--15----|-15-17b----------17-15----|-15-17b-(17)p15--------
D:----17------------------17-|-----------------------17-|-----------------------
A:---------------------------|--------------------------|-----------------------
E:---------------------------|--------------------------|-----------------------


OUTRO:

e:---------------------------------------------------|--------------------------18p15-
B:---------------------------------------------------|-----------------15-18p15-------
G:----------------------------------------15-(15)h17-|-17p15----15-17b----------------
D:-------------------15-15-17p15----15-17------------|-------17-----------------------
A:-------13-13-15/17-------------17------------------|--------------------------------
E:-13h15---------------------------------------------|--------------------------------

e:--------------------|-18p15--------------------18p15--------------------|-----------
B:-18p15-----15-18p15-|-------18p15-----15-18p15-------18p15-----15-15-18-|-18p15-----
G:-------17b----------|-------------17b----------------------17b----------|-------17--
D:--------------------|---------------------------------------------------|-----------
A:--------------------|---------------------------------------------------|-----------
E:--------------------|---------------------------------------------------|-----------

e:-------------------|-----------------18b----18b-|-18b(18)p15----15-------------15-|-
B:-------------------|-18b--18b(18)p15------------|------------18----18b----18b-----|-
G:-15----15-17b------|----------------------------|---------------------------------|-
D:----17-----------0-|----------------------------|---------------------------------|-
A:-------------------|----------------------------|---------------------------------|-
E:-------------------|----------------------------|---------------------------------|-

                                                             ~~~~~~~~ 
e:-18p15----15-18p15-------------------------|----------------------------|-----------
B:-------18----------18p15-18p15-------------|----18------18-------18--15-|-18b-------
G:-------------------------------17-15----15-|-15-17b-----17b~-----17-----|-----------
D:-------------------------------------17----|----------------------------|-----------
A:-------------------------------------------|----------------------------|-----------
E:-------------------------------------------|----------------------------|-----------


e:----------------------------|---------------------------------|---------------------
B:-18b(18)p15-----------------|---------------------------------|-----15-18p15--------
G:------------17-15----15-17b-|-(17)p15----15-17b-15b(15)----15-|-17b----------17-15--
D:------------------17--------|---------17----------------17----|---------------------
A:----------------------------|---------------------------------|---------------------
E:----------------------------|---------------------------------|---------------------


e:-----------|---------------------------------|--------------------------------------
B:-----------|---------------------------------|-----15-18p15-18p15-----15-18p15-18p15
G:----15-17b-|-(17)p15----15-17b-15b(15)----15-|-17b----------------17b---------------
D:-17--------|---------17----------------17----|--------------------------------------
A:-----------|---------------------------------|--------------------------------------
E:-----------|---------------------------------|--------------------------------------


e:--------|--------------------------------------------------|------------------------
B:-----15-|-18p15-18p15-----15-18p15-18p15----15-18p15----15-|-18p15----15-18p15-18p15
G:-17b----|-------------17b----------------17----------17----|-------17---------------
D:--------|--------------------------------------------------|------------------------
A:--------|--------------------------------------------------|------------------------
E:--------|--------------------------------------------------|------------------------

e:------------------------------|--------------------------------------------(0)--15--
B:----15-18p15-(15)h18p15----15-|-18p15-(15)h18p15-15h18p15-(15)h18p15-18b------------
G:-17---------------------17----|-----------------------------------------------------
D:------------------------------|-----------------------------------------------------
A:------------------------------|-----------------------------------------------------
E:------------------------------|-----------------------------------------------------

                                                  x4
e:|-17-15-15-15-18-15-15-15-20-15-15-15-18-15-15-15-|-17-15-15-15-18-15-15-15-20-15-15
B:|-------------------------------------------------|---------------------------------
G:|*-----------------------------------------------*|---------------------------------
D:|*-----------------------------------------------*|---------------------------------
A:|-------------------------------------------------|---------------------------------
E:|-------------------------------------------------|---------------------------------

                                                                  x3
e:-15-22-15-15-15-|-20-15-15-15-18-15-15-15-17-15-15-15-18-15-15-15-|-18p15------18p15
B:----------------|-------------------------------------------------|-------18p15-----
G:----------------|*-----------------------------------------------*|-----------------
D:----------------|*-----------------------------------------------*|-----------------
A:----------------|-------------------------------------------------|-----------------
E:----------------|-------------------------------------------------|-----------------

e:-(15)h18p15----15-18p15-18p15----15-|-18p15-18p15----15-18p15-18p15----15-18p15-18-|
B:------------18----------------18----|-------------18----------------18-------------|
G:------------------------------------|----------------------------------------------|
D:------------------------------------|----------------------------------------------|
A:------------------------------------|----------------------------------------------|
E:------------------------------------|----------------------------------------------|

e:-18b----18b----18p15----15-18b-|-(18)p15----15-18----18b----18b(18)-----15-|-18p15--
B:---------------------18--------|---------18--------------------------------|--------
G:-------------------------------|-------------------------------------------|--------
D:-------------------------------|-------------------------------------------|--------
A:-------------------------------|-------------------------------------------|--------
E:-------------------------------|-------------------------------------------|--------

e:----15-------------------------|----------------------------------|-----------------
B:-18----18-15-18p15----15-------|----------------------------------|-----------------
G:-------------------17----17-15-|-17p15----15----15-17--17b(17)p15-|----15-17p15-----
D:-------------------------------|-------17----17-------------------|-17----------17--
A:-------------------------------|----------------------------------|-----------------
E:-------------------------------|----------------------------------|-----------------

e:----------|-------------------------|----------------------------|------------------
B:----------|-17b(17)b(17)b-----------|----------------------------|------------------
G:-15-17-15-|-17b(17)b(17)b----17--15-|-17p15----------------------|------------------
D:----------|-------------------------|-------17-15----------------|------------------
A:----------|-------------------------|-------------17-15-13-15-13-|-15b(15)p13----13~
E:----------|-------------------------|----------------------------|------------15----

e:--------|------------------------------|----------------------------|---------------
B:--------|------------------------------|----------------------------|------18-----18
G:--------|-------------15-17-17b(17)p15-|-17-15-----15~-------15-17b-|-(17)----17b---
D:--------|-------15-17------------------|--------17--------17--------|---------------
A:-----13-|-15/17------------------------|----------------------------|---------------
E:--15----|------------------------------|----------------------------|---------------

							(fade out)
e:----------------------------------------|---------------------------|
B:-----18--18--(18)---(18)---(18)---(18)--|--(18)---------------------|
G:-17b-----17b-(17)b--(17)b--(17)b--(17)b-|--(17)---------------------|
D:----------------------------------------|---------------------------|
A:----------------------------------------|---------------------------|
E:----------------------------------------|---------------------------|

ENJOY IT!!
===============================================================================





Comments


Popular Metallica tabs & chords
Orion Bass Tabs
Throgh The Never Bass Tabs
Devils Dance Chords
Creeping Death Drum Tabs
Ain't My Bitch Tabs
Better Than You 2 Tabs
Fuel Tabs
Hate Train Tabs
Nothing Else Matters 2 Tabs
Sanitarium Tabs


Song lyrics



↑ Back to top | Tablatures and chords are parodies/interpretations of the original songs. You may use it for private study, scholarship, research or language learning purposes only
© 2014 AZChords.com Contact us | Privacy policy | DMCA | Add/correct tabs | Request tabs | Top 50 tabs