» » »

Jump In The Fire Bass tabs (ver.2)

Artists:  A B C D E F G H I J K L M N O P Q R S T U V W X Y Z # 

Jump In The Fire Bass tabs (ver.2)

Metallica
Rating:
0/5 (0 votes)

Hard to play? Try these video lessons and learn fast.
                Jump In The Fire
Metallica
Kill Em' All
1983




Intro
G|---------------------------------------------------|
D|---------------------------------------------------| 
A|-------------------------------------0-3--0-1------|
E|-3--3--3--3--1--1--1--1--0--0--0--0----------------|

G|---------------------------------------------------|
D|-------------------------3--3--3--3----------------| X2
A|-------------1--1--1--1--------------0-3--0-1------|
E|-3--3--3--3----------------------------------------|


Verse

G|---------------------------------------------------|
D|---------------------------------------------------| 
A|-------------1-------------------------------------|
E|-1-3-3-1-3-1-----1--1--1---------------------------|

G|---------------------------------------------------| X6
D|---------------------------------------------------| 
A|-------------3---X-X-X-4---------------------------|
E|-1-3-3-1-3-1---------------------------------------|


G|---------------------------------------------------|
D|---------------------------------------------------| 
A|-------------1-------------------------------------|
E|-1-3-3-1-3-1-----1--1--1---------------------------|

G|---------------------------------------------------| 
D|---------------------------------------------------| 
A|-------------3------4--4---------------------------|
E|-1-3-3-1-3-1---------------------------------------|


Repeat Intro and Verse


Solo 



G|---------------------------------------------------|  
D|---------------------------------------------------|   Repeat this      
A|---------------------------------------------------|  Throughout solo
E|-6-6-6-6-6--6-6-6-6-6-4--6-------------------------|



G|---------------------------------------------------|
D|---------------------------------------------------| 
A|---------------------------------------------------|
E|-3-3-3-3-3--3-3-3-3-3-1--3-------------------------|


Then repeat verse and intro riffs
            
Hard to play? Try these video lessons and learn fast. | Correct




comments powered by Disqus
↑ Back to top | Tablatures and chords are parodies/interpretations of the original songs. You may use it for private study, scholarship, research or language learning purposes only