» » »

Metallica, I Dissapear Bass tabs (ver.1)

Artists:  A B C D E F G H I J K L M N O P Q R S T U V W X Y Z # 

I Dissapear Bass tabs (ver.1)

Metallica Tabs
 Rating:
4/5 (4 votes)
I Dissapear lessons Tabs too difficult? Try these video lessons and learn fast
                Intro                                         

|---------------------|----------|
|---------------------|----------|
|---------------------|----------| x1
|-0-00-0-00-0-00-0-00-|-7~-5-0-7~|   

Intro 2     
|--------------|
|--------------|
|--------------| x4
|-5-0-7~-5-0-7~|

Fill 1

|-----------------------------------------|
|-----------------------------------------|
|-----------------------------------------| x1
|0-0-0-0-5-0-0-0-0-5-0-0-0-0-5-0-0-0-0-3-3| 


Verse
|-----------------------------|
|-----------------------------|
|-7--7-7-7--7-7-7--7-7-7-----7| x2
|-0--0-0-0--0-0-0--0-0-0-3-3-0| 

Bridge

|---------------------------------|
|---------------------------------|
|---------------10----------------| x1
|-3-3\2-2/5-5/7----10-12-------\19|

Verse
|-----------------------------|
|-----------------------------|
|-7--7-7-7--7-7-7--7-7-7-----7| x1
|-0--0-0-0--0-0-0--0-0-0-3-3-0|

Fill 2

|------|
|------|
|------| x1
|-3-2-1|

Chorus                          

|-----------------------------------|-----------------------------------|
|-----------------------------------|-----------------------------------|
|-----------------------------------|-----------------------10----12----| x2
|2-2-3-3/7-8-8-8-8-8-8\5-5-5-5-5\3-0|2-2-3-3/7-8-8-8-8-8-8-8--8/10--10-5|




Pre-Solo
|------------|--------|
|------------|--------|
|-7-77-77-77-|--------| x1
|-0-00-00-00-|7-8-5-3-|

Solo
|----------------------------------------------------------|
|----------------------------------------------------------|
|------------------------------------7p5-5-7p5-5-7p5-7p5-5-| x2
|-0-0-0-0-5-5-0-0-0-0-5-5-0-0-0-0-5-5----------------------|

Post-Solo
|--------------------------------------------------|
|--------------------------------------------------|
|--------------------------------------------------| x2
|-0-4-0--3-3--0-4-0--3-3--0-4-0--3-3--0-4-0--3-2-1-|

Chorus                          

|-----------------------------------|-----------------------------------|
|-----------------------------------|-----------------------------------|
|-----------------------------------|-----------------------10----12----| x2
|2-2-3-3/7-8-8-8-8-8-8\5-5-5-5-5\3-0|2-2-3-3/7-8-8-8-8-8-8-8--8/10--10-5|

End

|------------|
|------------|
|-7-77-77-77-|
|-0-00-00-00-|
            
Submit corrections

comments powered by Disqus
↑ Back to top | Metallica Bass for I Dissapear. Lyrics for acoustic guitar and electric guitar. Tablatures and chords are parodies/interpretations of the original songs. You may use it for private study, scholarship, research or language learning purposes only