>
 >
I Disappear 3

I Disappear 3 Guitar Tabs

Metallica - I Disappear 3 chords, tabs, tablatures, lyrics

Guitar lessons | Add/correct | Request | Top 50 tabs Artists:  A B C D E F G H I J K L M N O P Q R S T U V W X Y Z 0-9

I Disappear 3 Guitar Tabs – Metallica

CD, Sheet music, Poster

Do you like I Disappear 3? Share with your friends now
Bass TabsBass Tabs v2Bass Tabs v3ChordsDrum TabsTabsTabs v2Tabs v3Tabs v4Tabs v5Tabs v6Tabs v7Ukulele
All tuned - Eb Ab Db Gb Bb Eb
Gtr I - 'Kirk Hammett dist electric'
Gtr II - 'James Hetfield dist electric'
Gtr III - 'w/tremelo effect'
Gtr IV - 'clean electric w/chorus'

Intro
  Q=124
 4/4
  Gtr I
  Q       a      +E    +E    E   e   E   E       +Q        a      +E    +E    E   e   E   E
|--------------------------------------------||-----------------------------------------------|
|--------------------------------------------||o----------------------------------------------|
|---------9b11==(11)r==(9)-------------------||------------9b11==(11)r==(9)-------------------|
|--------------------------------------------||-----------------------------------------------|
|--------------------------------------------||o----------------------------------------------|
|-0------------------------------0-------0---||--(0)------------------------------0-------0---|
|                                             |-Riff A
| Gtr II
| S S S S         S  S  S  S S S S S S S S S      S  S S S         S  S  S  S S S S S S S S S
|--------------------------------------------||-----------------------------------------------|
|--------------------------------------------||o----------------------------------------------|
|--------------------------------------------||-----------------------------------------------|
|--------------------------------------------||-----------------------------------------------|
|--------------------------------------------||o----------------------------------------------|
|-0-0-0-0---------0--0--0--0-0-0-0-0-0-0-0-0-||---0--0-0-0---------0--0--0--0-0-0-0-0-0-0-0-0-|
|-Fill 1                          end Fill 1-|

  +Q        a      +E    +E    E   e   E   E
|--------------------------------------------------||
|-------------------------------------------------o||
|-----------9b11==(11)r==(9)-----------------------||
|--------------------------------------------------||
|-------------------------------------------------o||
|-(0)------------------------------0-------0-------||
|                                       end Riff A-|
|  S  S S S         S  S  S  S S S S S S S S S
|--------------------------------------------------||
|-------------------------------------------------o||
|--------------------------------------------------||
|--------------------------------------------------||
|-------------------------------------------------o||
|--0--0-0-0---------0--0--0--0-0-0-0-0-0-0-0-0-----||


  Riff A (1 bar) & Fill 1


w/Riff A
    +Q          E   +E  +E  Q   E   +Q          E   +E  +E  Q   E    3x
||--------------------------------|----------------------------------||
||o-------------------------------|---------------------------------o||
||--------------------------------|----------------------------------||
||--------------2b3r(2)-(2)-2-----|-------------2b3r(2)-(2)-2--------||
||o-------------2b3r(2)-(2)-0-----|-------------2b3r(2)-(2)-0-------o||
||--(0)-------------------------0-|-(0)-------------------------0----||



   Q          E   +E  +E  Q   E   +Q   a     +E   E  Q   E E
|-------------------------------|----------------------------||
|-------------------------------|----------------------------||
|-------------------------------|----------------------------||
|-------------2b3r(2)-(2)-2-----|------2b3---(2)-------------||
|-------------2b3r(2)-(2)-0-----|------2b3---(2)-------------||
|--0--------------------------0-|-(0)----------------------0-||


                           1.                         2.
    Gtrs I, II
    +Q   E   +E  +E  Q  E   +Q   E   +E  +E  Q  E     +Q   E   +E  E e E E
||------------------------|------------------------||----------------------|
||o-----------------------|-----------------------o||----------------------|
||------------------------|------------------------||----------------------|
||-------2b3r(2)-(2)-2----|------2b3r(2)-(2)-2-----||------2b3r(2)---------|
||o------2b3r(2)-(2)-0----|------2b3r(2)-(2)-0----o||------2b3r(2)---5---5-|
||--(0)-----------------0-|-(0)-----------------0--||-(0)------------3---3-|


 Verse
  $
                                                PM  PM
  +Q   q  E e E e     Q  Q  E e E S S   Q  Q  E e E e
|-----------------||------------------|---------------|
|-----------------||o-----------------|---------------|
|-----------------||------------------|---------------|
|-----------------||--------------0h2-|---------------|
|-(5)-------------||o-----------------|---------------|
|-(3)--0----0---0-||--0-------0-------|-0-------0---0-|


                            PM  PM          PM
  Q  Q  E e E e   +Q   Q  E e E e   Q  Q  E e E S S
|---------------|-----------------|-----------------|
|---------------|-----------------|-----------------|
|---------------|-----------------|-----------------|
|---------------|-----------------|-------------0h2-|
|-2-------5---5-|-(5)--2----------|-----------------|
|-0-------3---3-|-(3)--0----0---0-|-0-------0-------|


          PM  PM
  Q  Q  E e E e   Q  Q  E E E E   +E  E E E +E  E E E
|---------------|---------------|---------------------|
|---------------|---------------|---------------------|
|---------------|---------------|---------------------|
|---------------|---------5---5-|-(5)-4---4-(4)-7---7-|
|-2-------------|-2-------x---x-|-(x)-x---x-(x)-x---x-|
|-0-------0---0-|-0-------3---3-|-(3)-2---2-(2)-5---5-|


                      1.
              To Coda
  +E  E E E  E  Q  E   +Q   q  E e E e   Q  Q  E e E S S
|--------------------|-----------------|-----------------|
|--------------------|-----------------|-----------------|
|--------------------|-----------------|-----------------|
|-(7)-7-9-7-11-12----|-----------------|-------------0h2-|
|-(x)-x-x-x--x--x----|-----------------|-----------------|
|-(5)-5-7-5--9-10--0-|-(0)--0----0---0-|-0-------0-------|


          PM  PM
  Q  Q  E e E e   Q  Q  E e E E   +Q   a      +E  +E  E e E E
|---------------|---------------|-----------------------------|
|---------------|---------------|-----------------------------|
|---------------|---------------|------9b11==(11)r(9)---------|
|---------------|---------------|-----------------------------|
|---------------|---------5---5-|-(5)-------------------5---2-|
|-0-------0---0-|-0-------3---3-|-(3)-------------------3---0-|


  +Q   a      +E  +E  E e E E   +Q   a      +E  +E  E e E E
|-----------------------------|-----------------------------|
|-----------------------------|-----------------------------|
|------9b11==(11)r(9)---------|------9b11==(11)r(9)---------|
|-----------------------------|-----------------------------|
|-(2)-------------------5---2-|-(2)-------------------5---2-|
|-(0)-------------------3---0-|-(0)-------------------3---0-|


  +Q   a      +E  E Q  E E   +Q   Q  E e E e
|--------------------------|-------------------||
|--------------------------|------------------o||
|------9b11==(11)----------|-------------------||
|--------------------------|-------------------||
|-(2)----------------------|------------------o||
|-(0)--------------------0-|-(0)-------0---0---||


  2.
  +Q    Q   E e E e   Q   Q   S S e E e   Q   Q   E e E e
|-------------------|-------------------|-----------------|
|-------------------|-------------------|-----------------|
|------12\----------|----12\------------|----12\----------|
|------12\----------|----12\------------|----12\----------|
|-------------------|-2-----------------|-----------------|
|-(0)---------0---0-|-0-------0-0-0---0-|-0---------0---0-|
|- Rhy Fig 2

                                  Chorus
                                     >
  Q   Q   E e E e   +H     H       a W
|-----------------|-------------||--------|
|-----------------|-------------||--------|
|----12\----------|-------------||--------|
|----12\----5---5-|-(5)----7----||-0h2----|
|-2---------x---x-|-(x)----x----||--------|
|-0---------3---3-|-(3)----5----||---0----|
                  end Rhy Fig 2-||-Fill 2

                                                       1.              2.
     Q.    E   +Q.     E     +W             W            W              W
||------------------------|--------------|------------|-------------||--------||
||o-------<7>-(<7>)-------|--------------|------------|------------o||--------||
||--<5>---------------<7>-|-(<7>)--------|------------|-------------||--------||
||------------------------|--------------|-<7>--------|-------------||-<7>----||
||o-----------------------|--------------|------------|-<7>--------o||--------||
||------------------------|--------------|------------|-------------||--------||
                                                                    end Fill 2-|

 Interlude
  Gtrs I, II
  Q  E   +E  +E  Q  E   +Q   E   +E  +E  Q  E
|---------------------|-----------------------|
|---------------------|-----------------------|
|---------------------|-----------------------|
|----2b3r(2)-(2)-2----|------2b3r(2)-(2)-2----|
|----2b3r(2)-(2)-0----|------2b3r(2)-(2)-0----|
|-0-----------------0-|-(0)-----------------0-|


                                               Verse 3
                                                               D.S. al Coda
  +Q   E   +E  +E  Q  E   +Q   E   +E  E e E E    Q  Q  E e E e
|-----------------------|----------------------||---------------||
|-----------------------|----------------------||---------------||
|-----------------------|----------------------||---------------||
|------2b3r(2)-(2)-2----|------2b3r(2)---------||---------------||
|------2b3r(2)-(2)-0----|------2b3r(2)---5---5-||---------------||
|-(0)-----------------0-|-(0)------------3---3-||-0-------0---0-||


  &
  Rhy Fig 2


 Chorus
  Gtr III
  Fill 2


    W              Q.     E   +Q.      E     +W
|-<12>----------|-------------------------|------------------|
|---------------|--------<7>-(<7>)--------|------------------|
|---------------|-<5>-----------------<7>-|-(<7>)------------|
|---------------|-------------------------|------------------|
|---------------|-------------------------|------------------|
|---------------|-------------------------|------------------|
|
| Gtr II
|   E E H.         E E Q       Q    Q         E   Q.   Q  Q
|---------------|-------------------------|------------------|
|---------------|-------------------------|------------------|
|---8s9-9-------|--8s9-9-------9----9-----|---8s==9----9--9--|
|---x-x-x-------|--x-x-x-------x----x-----|---x---x----x--x--|
|---6s7-7-------|--6s7-7-------7----7-----|---6s==7----7--7--|
|---------------|-------------------------|------------------|


   W                   W                  Q.     E   +Q.      E
|------------------|-<12>--------------|-------------------------|
|------------------|-------------------|--------<7>-(<7>)--------|
|------------------|-------------------|-<5>-----------------<7>-|
|-<7>--------------|-------------------|-------------------------|
|------------------|-------------------|-------------------------|
|------------------|-------------------|-------------------------|
|
|  E E Q  E  E  Q      E E E E E E E E    E E E  E    Q    Q
|------------------|-------------------|-------------------------|
|------------------|-------------------|-------------------------|
|--8s9-9--x-12s11--|---8s9-9-9-9s8-9-9-|--8s9-9s=8----9----9-----|
|--x-x-x--x--x--x--|---x-x-x-x-x-x-x-x-|--x-x-x--x----x----x-----|
|--6s7-7--x-10s=9--|---6s7-7-7-7s6-7-7-|--6s7-7s=6----7----7-----|
|------------------|-------------------|-------------------------|


  W                W
|----------------|----------------||
|----------------|----------------||
|(<7>)-----------|<7>-------------||
|----------------|----------------||
|----------------|----------------||
|----------------|----------------||
|
| E E E E E E Q    E E E E E E Q
|----------------|----------------||
|----------------|----------------||
|-8s9-9-9-9-9-9--|-8s9-9-9-9-9-9--||
|-x-x-x-x-x-x-x--|-x-x-x-x-x-x-x--||
|-6s7-7-7-7-7-7--|-6s7-7-7-7-7-7--||
|----------------|----------------||


 Interlude
w/Fill 1 x4
  Gtrs I, II
  Q  a      +E  +E  E e E E
|---------------------------|
|---------------------------|
|----9b11==(11)r(9)---------|
|---------------------------|
|-2-------------------5---2-|
|-0-------------------3---0-|


    +Q   a      +E  +E  E e E E     +Q   E      +E   +Q.   +E
||-------------------------------||-----------------------------|
||o-----------------------------o||-----------------------------|
||-------9b11==(11)r(9)----------||------9b11==(11)-(11)r==(9)--|
||-------------------------------||-----------------------------|
||o-(2)-------------------5---2-o||-(2)-------------------------|
||--(0)-------------------3---0--||-(0)-------------------------|


   Guitar Solo
    Gtr I
    Q   S S  S  S  S    E.    S  S  E  3x
||-------------------------------------||
||o-----------------------------------o||
||-----12---12-12------------------12--||
||-----12---12-12------------12h14-----||
||o-------------------/14-------------o||
||--0----------------------------------||
|
|   Gtr II
|   H             +E       E  E     E  3x
||-------------------------------------||
||o-----------------------------------o||
||-------------------------------------||
||-------------------------------------||
||o-----------------------------------o||
||--0-------------(0)------5--5-----0--||


   S  S  S  S  S  S  S  S  S   S  S  S  S  S  E
|-----------------------------------------------|
|-----------------------------------------------|
|-14p12----14p12----14p12-----14p12----14p12----|
|-------14-------14-------14--------14-------14-|
|-----------------------------------------------|
|-----------------------------------------------|
|
|  H                      +E      E     E     E
|-----------------------------------------------|
|-----------------------------------------------|
|-----------------------------------------------|
|-----------------------------------------------|
|-----------------------------------------------|
|--0----------------------(0)-----5-----5-----0-|


    Q   S S  S  S  S    E.    S  S  E  3x
||-------------------------------------||
||o-----------------------------------o||
||-----12---12-12------------------12--||
||-----12---12-12------------12h14-----||
||o-------------------/14-------------o||
||--0----------------------------------||
|
|   H             +E       E  E     E  3x
||-------------------------------------||
||o-----------------------------------o||
||-------------------------------------||
||-------------------------------------||
||o-----------------------------------o||
||--0-------------(0)------5--5-----0--||


   S  S  S  S  S  S  S  S  S   S  S  S  a      +S   +S   E
|----------------------------------------------------------||
|----------------------------------------------------------||
|-14p12----14p12----14p12-----14p12----14b16==(16)r(14)----||
|-------14-------14-------14--------14------------------14-||
|----------------------------------------------------------||
|----------------------------------------------------------||
|
|  H                      +E      E             E        E
|----------------------------------------------------------||
|----------------------------------------------------------||
|----------------------------------------------------------||
|----------------------------------------------------------||
|----------------------------------------------------------||
|--0----------------------(0)-----5-------------5--------0-||


   Interlude
    Gtrs I, II
                                           PM--|
    Q  a   +E  E E e Q   3x Q  a   +E  E E e E E
||-----------------------||----------------------|
||o---------------------o||----------------------|
||-----------------------||----------------------|
||-----------------------||----------------------|
||o----------------5-5--o||----------------5-4-3-|
||--0--3b5-(3)p0---3-3---||-0--3b5-(3)p0---3-2-1-|


    Gtr I
    Q  a      +E  +E  H       3x Q  a      +E  +E  H
||----------------------------||---------------------------||
||o--------------------------o||---------------------------||
||-----9b11==(11)r(9)---------||----9b11==(11)r(9)---------||
||----------------------------||---------------------------||
||o--------------------------o||---------------------------||
||----------------------------||---------------------------||
|
|   Gtr II
|                                                   PM--|
|   Q  a     +E    E  E e Q   3x Q  a      +E   E  E e E E
||----------------------------||---------------------------||
||o--------------------------o||---------------------------||
||----------------------------||---------------------------||
||----------------------------||---------------------------||
||o---------------------5-5--o||---------------------5-4-3-||
||--0--3b5----(3)p=0----3-3---||-0--3b5----(3)p=0----3-2-1-||


 Out-Chorus
  E S S E S S E S S E S S    E  E E E E E E E    E  E E E E E E E
|-------------------------|-------------------|-------------------|
|-------------------------|-------------------|-------------------|
|-9-9-9-9-9-9-9-9-9-9-9-9-|--8s=9-9-9-9-9-9-9-|--8s=9-9-9-9-9-9-9-|
|-x-x-x-x-x-x-x-x-x-x-x-x-|--x--x-x-x-x-x-x-x-|--x--x-x-x-x-x-x-x-|
|-7-7-7-7-7-7-7-7-7-7-7-7-|--6s=7-7-7-7-7-7-7-|--6s=7-7-7-7-7-7-7-|
|-------------------------|-------------------|-------------------|
|
|       PM----|                   PM--|               PM--|
| Q     E E   E E   E E     +Q    E E E E E E   +Q    E E E E E E
|-------------------------|-------------------|-------------------|
|-------------------------|-------------------|-------------------|
|-------------------------|-------------------|-------------------|
|-------------------------|-------------4---5-|-(5)---------4---2-|
|-2-------------4-----5---|-(5)---------2---3-|-(3)---3-3-3-2---0-|
|-0-----0-0---0-2-----3---|-(3)---3-3-3-------|-------------------|


   E  E E E E E E E   E E E E E E E E    E  E E E E E E E
|-------------------|-----------------|-------------------|
|-------------------|-----------------|-------------------|
|--8s=9-9-9-8s9-9-9-|-8s9-9-9-9-9-9-9-|--8s=9-9-9-9-9-9-9-|
|--x--x-x-x-x-x-x-x-|-x-x-x-x-x-x-x-x-|--x--x-x-x-x-x-x-x-|
|--6s=7-7-7-6s7-7-7-|-6s7-7-7-7-7-7-7-|--6s=7-7-7-7-7-7-7-|
|-------------------|-----------------|-------------------|
|
|       PM--|             PM--|               PM--|
| +Q    E E E E E E   Q   E E E E E E   +Q    E E E E E E
|-------------------|-----------------|-------------------|
|-------------------|-----------------|-------------------|
|-------------------|-----------------|-------------------|
|-(2)---------2-----|-----------------|-------------4---5-|
|-(0)---0-0-0-0-5-4-|-2---------4---5-|-(5)---------2---3-|
|---------------3-2-|-0---0-0-0-2---3-|-(3)---3-3-3-------|


   E  E E E E E E E    E   E  E  E  E  E  E  E
|-------------------|--------------------------|
|-------------------|--------------------------|
|--8s=9-9-9-9-9-9-9-|-12--12-12-12-12-12-12-12-|
|--x--x-x-x-x-x-x-x-|--x---x--x--x--x--x--x--x-|
|--6s=7-7-7-7-7-7-7-|-10--10-10-10-10-10-10-10-|
|-------------------|--------------------------|
|
|       PM--|                 PM---|
| +Q    E E E E E E   +Q      E  E  E  E  Q
|-------------------|--------------------------|
|-------------------|--------------------------|
|-------------------|------------------7--9----|
|-(5)---------4---7-|-(7)--------------x--x----|
|-(3)---3-3-3-2---5-|-(5)-----3--3--3--5--7----|
|-------------------|--------------------------|


    E E E E  E  E E E    E  E E E  E  E E E
||--------------------|---------------------|
||o-------------------|---------------------|
||--8s9-9-9--9--9-9-9-|--8s=9-9-9--9--9-9-9-|
||--x-x-x-x--x--x-x-x-|--x--x-x-x--x--x-x-x-|
||o-6s7-7-7--7--7-7-7-|--6s=7-7-7--7--7-7-7-|
||--------------------|---------------------|
|
|   H       +E  Q   E   +H        +E  Q   E
||--------------------|---------------------|
||o-------------------|---------------------|
||--------------------|---------------------|
||--------------------|---------------4---5-|
||o-2-------(2)-4---5-|-(5)-------(5)-2---3-|
||--0-------(0)-2---3-|-(3)-------(3)-------|


 1.
   E  E E E  E  E E E    E   E  E  E  E   E  E  E
|---------------------|-----------------------------||
|---------------------|----------------------------o||
|--8s=9-9-9--9--9-9-9-|-12--12-12-12-12--12-12-12---||
|--x--x-x-x--x--x-x-x-|--x---x--x--x--x---x--x--x---||
|--6s=7-7-7--7--7-7-7-|-10--10-10-10-10--10-10-10--o||
|---------------------|-----------------------------||
|
| +H        +E  Q   E   +H           +E   Q     E
|---------------------|-----------------------------||
|---------------------|----------------------------o||
|---------------------|-----------------------------||
|-(5)-------(5)-4---2-|-(2)----------(2)------------||
|-(3)-------(3)-2---0-|-(0)----------(0)--5-----4--o||
|---------------------|-------------------3-----2---||


  2.
   H       +E  Q   E   +W
|--------------------|--------------------------|
|--------------------|--------------------------|
|--------------------|--------------------------|
|-(5)------(5)-4---7-|-(7)----------------------|
|-(3)------(3)-2---5-|-(5)----------------------|
|--------------------|--------------------------|
|
|  E E E E  E  E E E    E   E  E  E  E  E  E  E
|--------------------|--------------------------|
|--------------------|--------------------------|
|--8s9-9-9--9--9-9-9-|-12--12-12-12-12-12-12-12-|
|--x-x-x-x--x--x-x-x-|--x---x--x--x--x--x--x--x-|
|--6s7-7-7--7--7-7-7-|-10--10-10-10-10-10-10-10-|
|--------------------|--------------------------|


  Q  a      +E  +E  E e E e   +Q   a      +E  +E  E e E e
|---------------------------|-----------------------------|
|---------------------------|-----------------------------|
|----9b11==(11)r(9)---------|------9b11==(11)r(9)---------|
|---------------------------|-----------------------------|
|---------------------------|-----------------------------|
|-0-------------------0---0-|-(0)-------------------0---0-|
|
| Q  a      +E  +E  E e E e    Q   a      +E  +E  E e E e
|---------------------------|-----------------------------|
|---------------------------|-----------------------------|
|---------------------------|-----------------------------|
|----2b4====(4)r(2)---------|------2b4====(4)r(2)---------|
|-2-------------------5---2-|--2--------------------5---2-|
|-0-------------------3---0-|--0--------------------3---0-|


  +Q   a      +E  +E  E e E e   +Q   a      +E  +E  H
|-----------------------------|--------------------------*|
|-----------------------------|--------------------------*|
|------9b11==(11)r(9)---------|------9b11==(11)r(9)------*|
|-----------------------------|--------------------------*|
|-----------------------------|--------------------------*|
|-(0)-------------------0---0-|-(0)----------------------*|
|
|  Q   a      +E  +E  E e E e    Q   a      +E  +E  H
|-----------------------------|--------------------------*|
|-----------------------------|--------------------------*|
|-----------------------------|--------------------------*|
|------2b4====(4)r(2)---------|------2b4====(4)r(2)------*|
|--2--------------------5---2-|--2-----------------------*|
|--0--------------------3---0-|--0-----------------------*|





Comments


Popular Metallica tabs & chords
Black Night 3 Bass Tabs
Disposable Heros Bass Tabs
King Nothing Chords
Battery Live Tabs
Broken Beat And Scarred Tabs
Ecstacy Of Gold 1 Tabs
Live Shit Riffs Tabs
The Outlaw Torn 2 Tabs
The Thing That Should Not Be 1 Tabs
Through The Never 1 Tabs


Song lyrics



↑ Back to top | Tablatures and chords are parodies/interpretations of the original songs. You may use it for private study, scholarship, research or language learning purposes only
© 2014 AZChords.com Contact us | Privacy policy | DMCA | Add/correct tabs | Request tabs | Top 50 tabs