» » »

- Human Tabs (ver.3)

Artists:  A B C D E F G H I J K L M N O P Q R S T U V W X Y Z # 

- Human Tabs (ver.3)

Metallica
Rating:
0/5 (0 votes)

Tabs too difficult? Try these video lessons and learn fast.
                
Tune guitar down 1 1/2 steps (C# tuning)


Symphony intro


INTRO

|-------------------------------------------------|
|-------------------------------------------------|
|-------------------------------------------------|
|-2-2-2-------------------2-2-2-------------------|
|-2-2-2-----------5-------2-2-2-------2-4-5---5---|
|-0-0-0-7~~~0-6~~~3-0-3~~~0-0-0-7~~~0-0-2-3---3---| (4x)
			            PM    PM

CHORUS

|-----------------------------------------------------------------|
|-----------------------------------------------------------------|
|-----------------------------------------------------------------|
|-2-----2-----2-----2-------------2-----2-----2-----2-------------|
|-2-----2-----2-----2-------------2-----2-----2-----2-------------|
|-0-----0-----0-----0-----5-6-5-3-0-----0-----0-----0-----5-6-6-3-|
							      PM.|
|-------------------------------------------------|
|-------------------------------------------------|
|-------------------------------------------------|
|-2-----2-----2---5-----5-----5---7-----7-----7---|
|-2-----2-----2---5-----5-----5---7-----7-----7---|
|-0-----0-----0-0-3-----3-----3-0-5-----5-----5-0-|


REFRAIN

|-------------------------------------------------|
|-------------------------------------------------|
|-------------------------------------------------|
|-2-2-2-------------------2-2-2-------------------|
|-2-2-2-----------5-------2-2-2-------2-4-5---5---|
|-0-0-0-7~~~0-6~~~3-0-3~~~0-0-0-7~~~0-0-2-3---3---| (4x)
			            PM    PM
"You've got to breathe, man breathe..."
            
Tabs too difficult? Try these video lessons and learn fast.




comments powered by Disqus
↑ Back to top | Tablatures and chords are parodies/interpretations of the original songs. You may use it for private study, scholarship, research or language learning purposes only