» » »

Metallica, Hole In The Sky Tabs (ver.1)

Artists:  A B C D E F G H I J K L M N O P Q R S T U V W X Y Z # 

Hole In The Sky Tabs (ver.1)

Metallica Tabs
Rating:
0/5 (0 votes)
Hard to play? Try these video lessons and learn fast.
                HOLE IN THE SKY
BLACK SABBATH COVER BY METALLICA
LIVE FROM THE ROCK AND ROLL HALL OF FAME INDUCTION



TUNING : Eb (Eb-Ab-Db-Gb-Bb-Eb)

RIFF 1 (X2)

Eb---------------------------------------|
Bb---------------------------------------|
Gb---------------------------------------|
Db---------------------------------------|
Ab--------7-5-7-----7-5-7-----7-5-7--5-7-|
Eb----0-0---------0---------0--------3-5-|

Eb---------------------------------------|
Bb---------------------------------------|
Gb---------------------------------------|
Db---------------------------------------|
Ab--------7-5-7-----7-5-7-----7-5-7--7-5-|
Eb----0-0---------0---------0--------5-3-|


RIFF 2 (X4)

Eb--------------------------------------------------------|
Bb--------------------------------------------------------|
Gb---------7h8p7------------------------------------------|
Db--------------------7h8p7-------------------------------|
Ab--------------------------------7h8p7-------------------|
Eb--0---0----------0---------0-----------/////////slide---|

REPEAT RIFF 1 (X2) - "I'm looking through a hole in the sky..."

REPEAT RIFF 2 (X4)

REPEAT RIFF 1 (X2) - "I'm living in a room without any view..."

CHORUS RIFF/RIFF 3
GUITAR 1 (RHYTHM GUITAR)
Eb----------------------------------------------------|
Bb----------------------------------------------------|
Gb----------------------------------------------------|
Db----------------------------------------------------|
Ab----7-----------7-----------7-----------7-----------|
Eb----5--5-5-5-5--5--5-5-5-5--5--5-5-5-5--5--5-5-5-5--|  PLAY 3 TIMES
         P.M----|    P.M----|    P.M----|    P.M------|

GUITAR 2 (LEAD GUITAR)

Eb---------------------------------------------------|
Bb---------------------------------------------------|
Gb-----5---5-4-2---5---5-4-2---5---5-4-2---5---5-4-2-|
Db---------------------------------------------------|
Ab---------------------------------------------------|
Eb---------------------------------------------------|  PLAY 3 TIMES
"Hole in the sky..."


CHORUS RIFF/RIFF 3 ENDING
GUITAR 1 (RHYTHM GUITAR)
Eb--------------------------------------------------|
Bb--------------------------------------------------|
Gb--------------------------------------------------|
Db--------------------------------------------------|
Ab----7-----------5--5--5--5/4----------------------|
Eb----5--5-5-5-5--3--3--3--3/2----------------------| 4TH TIME
         P.M----|


Eb--------------------------------------------------|
Bb--------------------------------------------------|
Gb-----5---5-4-2------------------------------------|
Db--------------------------------------------------|
Ab----------------5--5--5--5/4----------------------|
Eb----------------3--3--3--3/2----------------------| 4TH TIME

"Through it I fly..."

REPEAT RIFF 1 (X2)

REPEAT RIFF 1 (X2) "I'm seeing the stars that disappear in the sun"

REPEAT CHORUS RIFF/RIFF 3 (X3) - "Hole in the sky..."
+ ENDING - "Through it I fly.."

SOLO RHYTHM IS RIFF 1 PLAYED 4 TIMES

IMPROVISE MINOR PENTATONIC LICKS WITH DIGITECH WHAMMY PEDAL

REPEAT RIFF 1 (X2) "I've watched the dogs of war enjoying their feast..."

REPEAT RIFF 2 (X4)

REPEAT RIFF 1 (1 AND A HALF TIMES)

ENDING RIFF

Eb--------------------------|
Bb--------------------------|
Gb--------------------------|
Db--------------------------|
Ab--------7-5-7-----7-5-7---|
Eb----0-0---------0---------|

AND THAT'S THE WHOLE SONG
            

comments powered by Disqus
↑ Back to top | Metallica Tabs for Hole In The Sky. Lyrics for acoustic guitar and electric guitar. Tablatures and chords are parodies/interpretations of the original songs. You may use it for private study, scholarship, research or language learning purposes only