» » »

Hit The Lights Bass tabs (ver.2)

Artists:  A B C D E F G H I J K L M N O P Q R S T U V W X Y Z # 

Hit The Lights Bass tabs (ver.2)

Metallica
Rating:
0/5 (0 votes)

Hard to play? Try these video lessons and learn fast.
                
Band: Metallica


Intro:
G|------------------------------------------------------------------|
D|------------------------------------------------------------------|
A|7777777777777777777777777-7-7-7-7-7~------------------------------|
E|0000000000000000000000000-0-0-0-0-0-------22222222222222222222222~|

Pre Verse:
G|--------------------------|
D|--------------------7p5-5-|
A|--------350------------7-7|
E|5555555-----5555555-------|         X2

Verse:
No life till' leather...
G|-------------------|
D|-------------------|
A|5-5-------5-5-3-2--|
E|-----3-3----------3|

Pre-Chorus:
G|-------------------------------|
D|--------------------7p5-5--5H7~|
A|--------350------------7-7-----|
E|5555555-----5555555------------|     

Chorus:
When we start to rock we never...
G|-----------|
D|-----------|
A|-------32--|
E|00-323----3|

Hit the lights...
G|------------------|
D|------------------|
A|----------------5-|
E|55-3/55-3/55-3-5-3|      X3

G|-------|
D|-------|
A|-------|
E|3/55-3~|    

Pre solo:
G|-------------|
D|7-5----------|
A|------7-6-5--|
E|------------8|      X4

Solo part:
G|---------------------------------------|
D|---------------------------9-7---------|
A|-------5--------7--------5-----9-8-7---|
E|7-7-7-7--7-7-7-7--7-7-7-7------------10|      X8

G|---------------------------------------|
D|---------------------------9-7---------|
A|-------5--------7--------5-----9-8-7---|
E|5-5-5-5--5-5-5-5--5-5-5-5------------10|      X2

G|--------------|
D|9-7-----------|
A|------9-8-7---|
E|------------10|      X2
            
Hard to play? Try these video lessons and learn fast. | Correct




comments powered by Disqus
↑ Back to top | Tablatures and chords are parodies/interpretations of the original songs. You may use it for private study, scholarship, research or language learning purposes only