» » »

Metallica, Hit The Lights Tabs (ver.3)

Artists:  A B C D E F G H I J K L M N O P Q R S T U V W X Y Z # 

Hit The Lights Tabs (ver.3)

Metallica Tabs
Rating:
0/5 (0 votes)
Hit The Lights lessons Tabs too difficult? Try these video lessons and learn fast
                p = pull off
b = bend
p/ = pic slide
H = Hammer on

Guitar 1
Fade In
|-----|------------------------------------------------|
|-----|------------------------------------------------|
|-----|------------------------------------------------|
|--2--|--2--2---2--2--|---2---2---|---4----|-----------|
|--2--|--2--2---2--2--|---2---2---|---4----|-p////////-|
|--0--|--0--0---0--0--|---0---0---|---2----|-p////////-|

|-------------------------------------------------------------
|-------------------------------------------------------------
|------------------5--7-7----0---5----------------------------
|---5--------------5--7-7----0---5-------------7p5---5--------
|---0--0-0-0-0-0-0-----------------0-0-0-0-0-0-----7------6--7
|-------------------------------------------------------------

|------------------------------|
|------------------------------|
|-----------------5--7-7----0--|
|--5--------------5--7-7----0--|
|--0--0-0-0-0-0-0--------------|
|------------------------------|

|------------------------|
|------------------------|
|--5-----------------7b--|
|--5---------------------|
|----0-0-0-0-0-0-6H7-----|
|------------------------| 

|------------------------------|---------------------------------|
|------------------------------|---------------------------------|
|-----------------5--7-7----0--|--5------------------------------|
|--5--------------5--7-7----0--|--5-------------7p5---5----------|
|--0--0-0-0-0-0-0--------------|----0-0-0-0-0-0-----7------6--7--|
|------------------------------|---------------------------------|
 
|------------------------------|------------------------|
|------------------------------|------------------------|
|-----------------5--7-7----0--|--5------------------5--|
|--5--------------5--7-7----0--|--5------------5---5----|
|--0--0-0-0-0-0-0--------------|----0-0-0-0-0-5---------|
|------------------------------|------------------------|

|------------------------------|---------------------------------|
|------------------------------|---------------------------------|
|-----------------5--7-7----0--|--5------------------------------|
|--5--------------5--7-7----0--|--5-------------7p5---5----------|
|--0--0-0-0-0-0-0--------------|----0-0-0-0-0-0-----7------6--7--|
|------------------------------|---------------------------------|

|------------------------------|---------------------------------|
|------------------------------|---------------------------------|
|-----------------5--7-7----0--|--5------------------------------|
|--5--------------5--7-7----0--|--5-------------7p5---5----------|
|--0--0-0-0-0-0-0--------------|----0-0-0-0-0-0-----7------6--7--|
|------------------------------|---------------------------------|


Chorus

|-------------------------|
|-------------------------|
|-------------------------|
|--2-----2--------2----2--|
|--0-----0--------0----2--|
|---------------3---------|

|------------------------------|
|------------------------------|
|------------------------------|
|----------2----2------5-------|
|----------0----0------3----5--|
|-------3-------------------3--|

Riff before the solo

|------------------|
|------------------|
|-----------4------|
|----2------5------|
|----0------5------|
|-----------3------|


|------------------------|
|---------------------5--|
|---------------------5--|
|--7---7-----7---7-------|
|--0---0-----0---0-------|
|------------------------|


|------------------------|
|---------------------7--|
|---------------------7--|
|--7---7-----7---7-------|
|--0---0-----0---0-------|
|------------------------|

|------------------------|-------------------------------------|
|---------------------5--|-------------------------------------|
|---------------------5--|-------------------------------------|
|--7---7-----7---7-------|---7----5----------------------------|
|--0---0-----0---0-------|--------------7----6----5------------|
|------------------------|-----------------------------8-------| 
enjoy!!! mail me if u got any questions or u find any mistakes
            

comments powered by Disqus
↑ Back to top | Metallica Tabs for Hit The Lights. Lyrics for acoustic guitar and electric guitar. Tablatures and chords are parodies/interpretations of the original songs. You may use it for private study, scholarship, research or language learning purposes only