>
 >
Hate Train

Hate Train Bass Tabs

Metallica - Hate Train chords, tabs, tablatures, lyrics

Guitar lessons | Add/correct | Request | Top 50 tabs Artists:  A B C D E F G H I J K L M N O P Q R S T U V W X Y Z 0-9

Hate Train Bass Tabs – Metallica

CD, Sheet music, Poster

Do you like Hate Train? Share with your friends now
Bass TabsTabs
-----------------------------------------------------------------------------
                             Hate Train - Metallica
-----------------------------------------------------------------------------
UPDATE: this song is 5string, so if 4 BEAD no G, but really the B is only used once, so u decide!


Tuning:EADG

G|---------|---------------------|---------|---------------------|
D|-------3-|-(3)\----------------|-----5-3-|-(3)\----------------|
A|-2-3-5---|---------------------|-2-3-----|---------------------|
E|---------|------2-2-2-2--2-2-0-|---------|------2-2-2-2--2-2-0-|
B|---------|---------------------|---------|---------------------|

G|---------|---------------------|----------|----------------------|
D|-------3-|-(3)\----------------|-----5-3\-|----------------------|
A|-2-3-5---|---------------------|-2-3------|-4-4-4-4-4-4----------|
E|---------|------2-2-2-2--2-2-0-|----------|-------------0-0--1-1-|
B|---------|---------------------|----------|----------------------|

G|----------------------|-----------------|---|
D|----------------------|-----------------|---|
A|-4-4-4-4-4-4----------|-5-5-5-5-5-5-5-5-|-7-|
E|-------------0-0--1-1-|-----------------|---|
B|----------------------|-----------------|---|

G|-----------------|----------------|-----------------|----------------|
D|-----------------|----------------|-----------------|----------------| x8
A|-----------------|----------------|-----------------|----------------|
E|-0-0-0-0-0-0-0-0-|-0-0-0-0-3p0-3p0|-0-0-0-0-0-0-5\7-|-10p7-5p0-3/5-5-|
B|-----------------|----------------|-----------------|----------------|

G|--------------|------------|-------|
D|------------7-|------------|-------|
A|-----7--5h7---|-----5----7-|-------|
E|-5h7----------|-3-5---5-7--|-0-0---|
B|--------------|------------|-------|

G|--------------|-----------------|-----------------|--------|
D|--------------|-----------------|-----------------|--------|
A|--------------|-----------------|-----------------|--------|
E|-0-3p0-0-3p0-0|-3p0-0-3p0-0-3p0-|-0-0-3p0-0-3p0-0-|-5-6-7--|
B|--------------|-----------------|-----------------|--------|

G|--------------|-----------------|-----------------|--------|--------|
D|--------------|-----------------|-----------------|--------|--------|
A|--------------|-----------------|-----------------|--------|--------|
E|-0-3p0-0-3p0-0|-3p0-0-3p0-0-3p0-|-0-0-3p0-0-3p0-0-|-5-6-7--|-7-6-5--|
B|--------------|-----------------|-----------------|--------|--------|

G|---------------|-------------|---------------|------------|
D|---------------|-------------|---------------|------------| x4
A|---------------|-------------|---------------|------------|
E|-0--0-0-0-0--0-|-0--0-0-3--0-|-0--0-0-0-0--0-|-6p5h6--5p3-|
B|---------------|-------------|---------------|------------|

G|--------------|-----------------|-----------------|--------|
D|--------------|-----------------|-----------------|--------|
A|--------------|-----------------|-----------------|--------|
E|-0-3p0-0-3p0-0|-3p0-0-3p0-0-3p0-|-0-0-3p0-0-3p0-0-|-5-6-7--|
B|--------------|-----------------|-----------------|--------|

G|--------------|-----------------|-----------------|--------|--------|
D|--------------|-----------------|-----------------|--------|--------|
A|--------------|-----------------|-----------------|--------|--------|
E|-0-3p0-0-3p0-0|-3p0-0-3p0-0-3p0-|-0-0-3p0-0-3p0-0-|-5-6-7--|-7-6-5--|
B|--------------|-----------------|-----------------|--------|--------|

G|---------------|-------------|---------------|------------|
D|---------------|-------------|---------------|------------| x4
A|---------------|-------------|---------------|------------|
E|-0--0-0-0-0--0-|-0--0-0-3--0-|-0--0-0-0-0--0-|-6p5h6--5p3-|
B|---------------|-------------|---------------|------------|

G|--------------|-----------------|-----------------|--------|---------|
D|--------------|-----------------|-----------------|--------|-------3-|
A|--------------|-----------------|-----------------|--------|-2-3-5---|
E|-0-3p0-0-3p0-0|-3p0-0-3p0-0-3p0-|-0-0-3p0-0-3p0-0-|-5-6-7--|---------|
B|--------------|-----------------|-----------------|--------|---------|

G|-------------------------|     |---------|
D|-------------------------| x4  |-------3-|
A|-------------------------|     |-2-3-5---|
E|-2-2-2-2-2-2-2-2-3-2-0-3-|     |---------|
B|-------------------------|     |---------|

G|--------|---------|-------|------------|-----------|---------|------------|
D|--------|---------|-------|------------|-----------|---------|------------|
A|--------|---------|-0-----|-(0)--------|-----------|---------|-0-0-0--0-3-|
E|-0------|-(0)-----|-------|--------12\-|-0---0-(0)-|-0-0-0h3-|------------|
B|--------|---------|-------|------------|-----------|---------|------------|

G|---------|----------|----------|------------|---------|---------|---------|
D|---------|----------|----------|------------|---------|---------|---------|
A|--3-3--3-|----------|----------|-0-0-0--0-3-|--3-3--3-|-0-0h2p0-|---------|
E|---------|-0--0-(0)-|-0--0--0h3|------------|---------|---------|-3-3h5p3-|
B|---------|----------|----------|------------|---------|---------|---------|

G|---------|--------|
D|---------|--------|
A|---------|-2--2-2-|
E|-2-2h3p2-|--------|
B|---------|--------|

G|--------------|-----------------|-----------------|--------|
D|--------------|-----------------|-----------------|--------|
A|--------------|-----------------|-----------------|--------|
E|-0-3p0-0-3p0-0|-3p0-0-3p0-0-3p0-|-0-0-3p0-0-3p0-0-|-5-6-7--|
B|--------------|-----------------|-----------------|--------|

G|--------------|-----------------|-----------------|--------|--------|
D|--------------|-----------------|-----------------|--------|--------|
A|--------------|-----------------|-----------------|--------|--------|
E|-0-3p0-0-3p0-0|-3p0-0-3p0-0-3p0-|-0-0-3p0-0-3p0-0-|-5-6-7--|-7-6-5--|
B|--------------|-----------------|-----------------|--------|--------|

G|---------------|-------------|---------------|------------|
D|---------------|-------------|---------------|------------| x4
A|---------------|-------------|---------------|------------|
E|-0--0-0-0-0--0-|-0--0-0-3--0-|-0--0-0-0-0--0-|-6p5h6--5p3-|
B|---------------|-------------|---------------|------------|

G|--------------|-----------------|-----------------|--------|---------|
D|--------------|-----------------|-----------------|--------|-------3-|
A|--------------|-----------------|-----------------|--------|-2-3-5---|
E|-0-3p0-0-3p0-0|-3p0-0-3p0-0-3p0-|-0-0-3p0-0-3p0-0-|-5-6-7--|---------|
B|--------------|-----------------|-----------------|--------|---------|

G|-------------------------|     |---------|
D|-------------------------| x4  |-------3-|
A|-------------------------|     |-2-3-5---|
E|-2-2-2-2-2-2-2-2-3-2-0-3-|     |---------|
B|-------------------------|     |---------|

G|--------|---------|-------|------------|-----------|---------|------------|
D|--------|---------|-------|------------|-----------|---------|------------|
A|--------|---------|-0-----|-(0)--------|-----------|---------|-0-0-0--0-3-|
E|-0------|-(0)-----|-------|--------12\-|-0---0-(0)-|-0-0-0h3-|------------|
B|--------|---------|-------|------------|-----------|---------|------------|

G|---------|----------|--------|------------|---------|---------|---------|
D|---------|----------|--------|------------|---------|---------|---------|
A|--3-3--3-|----------|--------|-0-0-0--0-3-|--3-3--3-|-0-0h2p0-|---------|
E|---------|-0--0-(0)-|-0-0-0h3|------------|---------|---------|-3-3h5p3-|
B|---------|----------|--------|------------|---------|---------|---------|

G|---------|--------|
D|---------|--------|
A|---------|-2--2-2-|
E|-2-2h3p2-|--------|
B|---------|--------|

G|--------------|-----------------|-----------------|--------|
D|--------------|-----------------|-----------------|--------| x4
A|--------------|-----------------|-----------------|--------|
E|-0-3p0-0-3p0-0|-3p0-0-3p0-0-3p0-|-0-0-3p0-0-3p0-0-|-5-6-7--|
B|--------------|-----------------|-----------------|--------|

G|-----------------|-----------------|-----------------|--------|
D|-----------------|-----------------|-----------------|--------| x2
A|-----------------|-----------------|-----------------|-2-3-4--|
E|-2-2-5p2-2-5p2-2-|-5p2-2-5p2-2-5p2-|-2-2-5p2-2-5p2-2-|--------|
B|-----------------|-----------------|-----------------|--------|

G|----------|------|------|----------|---------|
D|-------3\-|------|------|----------|---------|
A|-2-3-5----|-9h10-|-9h10-|-9h10-7h9-|-5h7-4h5-| x4
E|----------|------|------|----------|---------|
B|----------|------|------|----------|---------|

G|------------------|------------------|------------------|------------  x4
D|------------------|------------------|------------------|------------
A|-9h10-------------|-9h10-------------|-9h10-----7h9-----|-5h7-----4h5-----|
E|------0-0-0-0-0-0-|------0-0-0-0-0-0-|------0-0-----0-0-|-----0-0-----0-0-|
B|------------------|------------------|------------------|-----------------|

G|---|   |-----------|
D|---|   |-----------|
A|---|   |-----------|
E|-0-|   |-----------|
B|---|   |-1-1-1-1-1-|

G|-----------------|    |-----------------|         
D|-----------------| x3 |-----------------| x1    Play these 2 rifts x3
A|---1-------------|    |---1-------------|
E|-0---1-0-2h3-2h3-|    |-0---1-----------|     and its either 1 or 3 on
B|-----------------|    |-------1-1-1-1-1-|         the low B part

G|-----------------|    |---------|     
D|-----------------| x9 |-------3-|
A|---1-------------|    |-2-3-5---|
E|-0---1-0-2h3-2h3-|    |---------|
B|-----------------|    |---------|

G|-------------------------|   |---------|
D|-------------------------| x4|-------3-| these 2 bars x2
A|-------------------------|   |-2-3-5---|
E|-2-2-2-2-2-2-2-2-3-2-0-3-|   |---------|
B|-------------------------|   |---------|

G|-------|--------|-------|----------|
D|-------|--------|-------|----------|
A|-------|--------|-0-----|-(0)------|
E|-0-----|-(0)----|-------|-------xx-|
B|-------|--------|-------|----------|

G|---------------------------|---------------------------|
D|---------------------------|---------------------------|
A|---------------------------|---------------------------|
E|-0-0-0-0-0-0-0-0-0-0-0-0-0-|-3-3-3-3-3-3-3-3-3-3-3-3-3-|
B|---------------------------|---------------------------|

G|---------------------------|---------------------------|
D|---------------------------|---------------------------|
A|-3-3-3-3-3-3-3-3-3-3-3-0-0-|-0-0-0-0-0-0-0-0-0-0-0-----|
E|---------------------------|-----------------------3-2-|
B|---------------------------|---------------------------|

G|---------------------------|---------------------------|
D|---------------------------|---------------------------|
A|---------------------------|-5-5-5-5-5-5-5-5-5-5-5-----|
E|-0-0-0-0-0-0-0-0-0-0-0-0-0-|-----------------------3-3-|
B|---------------------------|---------------------------|

G|---------------------------|-----------------------|
D|---------------------------|-----------------------|
A|-0-0-0-0-0-0-0-0-0-0-0-----|-----------------------|
E|-----------------------0-0-|-0-0-0-0-0-0-0-0-0-0-0-|
B|---------------------------|-----------------------|

G|-----------------------|-----------------------|
D|-----------------------|-----------------------|
A|-----------------------|-3-3-3-3-3-3-3-3-3-0-0-|
E|-3-3-3-3-3-3-3-3-3-3-3-|-----------------------|
B|-----------------------|-----------------------|

G|-------------------------|-------------------------|
D|-------------------------|-------------------------|
A|-0-0-0-0-0-0-0-0-0-0-----|-------------------------|
E|---------------------3-2-|-0-0-0-0-0-0-0-0-0-0-0-0-|
B|-------------------------|-------------------------|

G|-------------------------|
D|-------------------------|
A|-5-5-5-5-5-5-5-5-5-5-----|
E|---------------------3-3-|
B|-------------------------|

G|---------------------------------|---------------------------------|
D|---------------------------------|---------------------------------|
A|---------------------------------|-0-0-0-0-0-0-0-0-----------------|
E|-3-3-3-3-3-3-3-3-3-3-3-3-3-3-3-3-|-----------------0-0-0-0-0-0-0-0-|
B|---------------------------------|---------------------------------|

G|--------------|-----------------|-----------------|--------|
D|--------------|-----------------|-----------------|--------| x2
A|--------------|-----------------|-----------------|--------|
E|-0-3p0-0-3p0-0|-3p0-0-3p0-0-3p0-|-0-0-3p0-0-3p0-0-|-5-6-7--|
B|--------------|-----------------|-----------------|--------|

More to come...
lots of load and reload, and perhaps the dreaded lulu for shits and giggles

                            \m/METALLICA\m/





Comments


Popular Metallica tabs & chords
Cyanide 2 Bass Tabs
Blackened 1 Tabs
Dazed And Confused Tabs
Disposable Heroes 1 Tabs
No Leaf Clover Orchestra Tabs
Sabbra Cadabra 2 Tabs
So What?! Tabs
Some Kind Of Monster 1 Tabs
Until It Sleeps 4 Tabs
Whiskey In The Jar 2 Tabs


Song lyrics



↑ Back to top | Tablatures and chords are parodies/interpretations of the original songs. You may use it for private study, scholarship, research or language learning purposes only
© 2014 AZChords.com Contact us | Privacy policy | DMCA | Add/correct tabs | Request tabs | Top 50 tabs