>
 >
Guitar Solo Live In Texas

Guitar Solo Live In Texas Guitar Tabs

Metallica - Guitar Solo Live In Texas chords, tabs, tablatures, lyrics

Guitar lessons | Add/correct | Request | Top 50 tabs Artists:  A B C D E F G H I J K L M N O P Q R S T U V W X Y Z 0-9

Guitar Solo Live In Texas Guitar Tabs – Metallica

CD, Sheet music, Poster

Do you like Guitar Solo Live In Texas? Share with your friends now
Tabs
Intro (whit distortion)
eb1-----------------------------------------------------------5~~--------5~~----1
Bb1-------------------5~~-----------5~~-----------------------5~~--------5~~----1
Gb1--------------5~~----------------------7~~5~~7~~-----------5~~--------5~~7~~~1
Db1--7~~~7~~-------------7~~~-------------------------------------7~~~----------1
Ab1-----------------------------------------------------------------------------1
Eb1-----------------------------------------------------------------------------1


Guitar Riff
eb1------------------------------------------------------------------------------1
Bb1-------------5~~--------------------------------------------------------------1
Gb1-------5~~-------------5~~~---------------------------7-5--------------------51
Db1--7~~-----------7~~~---------5~~~---------------------7-5-----------------/7--1
Ab1---------------------------------------------2~~----------------2~~-----------1
Eb1----------------------------------------3~~--------5~~-----3~~------5~~-------1


eb1-----------------------8h9p8h9p8\------------------------------------------1
Bb1---------------------------------------------------------------------------1
Gb1--------------------------------------------------------------------9~~----1
Db1----------------------------------------------------------6~~9~~-----------1
Ab1--------2~~----------------------------2~~---------7~~---------------------1
Eb1--3~~--------5~~------------------3~~-------0--7~~---------------0--------1


eb1----12-----33h5p3p2---12------2-2-3-0----12------12-------7-------12-----------1
Bb1-------12-----0-----------12-----0------------12------12-------7-------12-------1
Gb1--------------------------------------------------------------------------12----1
Db1--------------------------------------------------------------------------------1
Ab1--------------------------------------------------------------------------------1
Eb10----------------------0----------------0------0-------0--------0--------------1

Clean
eb1--------------------------------------------------------1
Bb1--------------------------------------------------------1
Gb1---------0--------0--------0----------------------------1
Db1-------4--------5--------7--------0--------0--------0---1
Ab1----2---------3-------5--------4--------2---------------1
Eb10--------0--------0--------5--------3---------5--------1


Hey men this solo is correct only practic


By Carlos Salazar (sama)





Comments


Popular Metallica tabs & chords
Ain't My Bitch Bass Tabs
Blackened 3 Bass Tabs
Die, Die My Darling 2 Bass Tabs
Eye Of The Beholder 2 Bass Tabs
The Four Horsmen Bass Tabs
Harvester Of Sorrow Tabs
Imperial March Tabs
Slither 1 Tabs
Wherever I May Roam Solo S Tabs
Whiskey In Tha Jar Tabs


Song lyrics



↑ Back to top | Tablatures and chords are parodies/interpretations of the original songs. You may use it for private study, scholarship, research or language learning purposes only
© 2014 AZChords.com Contact us | Privacy policy | DMCA | Add/correct tabs | Request tabs | Top 50 tabs