>
 >
Frayed 2

Frayed 2 Guitar Tabs

Metallica - Frayed 2 chords, tabs, tablatures, lyrics

Guitar lessons | Add/correct | Request | Top 50 tabs Artists:  A B C D E F G H I J K L M N O P Q R S T U V W X Y Z 0-9

Frayed 2 Guitar Tabs – Metallica

CD, Sheet music, Poster

Do you like Frayed 2? Share with your friends now
TabsTabs v2Tabs v3
The rhythm is not correct, you'll have to listen to the tune to
figure it out

Intro:

                              
e-|----------------------------------|
B-|----------------------------------|
G-|----------5---------------4-------|
D-|-2--------5-------2-------4-------|
A-|-2--------3-------2-------2-------|
E-|-0----------------0---------------|

Riff 1 Repeat 6 times
                                                        P.M..|
e-|----------------------------------------------------------|
B-|----------------------------------------------------------|
G-|-----3----------3---------------3-----------3-------------|
D-|-2---3---2------3---2-------2---3---2-------3---2---------|
A-|-2---1---2------1---2-------2---1---2-------1---2---------|
E-|-0-------0--X-X-----0---X-X-0-------0---X-X-----0---0-0-0-|

Main riff:
      P.M.|      |.|     |     |.|
e-|----------------------------------|
B-|----------------------------------|
G-|---------3--------3---------------|
D-|-2-------3--------3-----4-------3\|
A-|-2-------1--------1-----4-------3\|
E-|-0-0-0-0------0-0-----0-2---0-0-1\|

Add 1:
      P.M.|      |.|
e-|--------------------------------|
B-|--------------------------------|
G-|---------3--------3-------3-3-3-|
D-|-2-------3--------3-------3-3-3-|
A-|-2-------1--------1-------1-1-1-|
E-|-0-0-0-0------0-0---------------|

Add 2:
      P.M.|      |.|
e-|----------------------------------------|
B-|----------------------------------------|
G-|---------3--------3------3-3------3-3-3-|
D-|-2-------3--------3------3-3------3-3-3-|
A-|-2-------1--------1----X-1-1------1-1-1-|
E-|-0-0-0-0------0-0-----------------------|

Verse 1:
        P.M     |.|     |.|     |.|     |.|
e-|-------------------------------------------
B-|-------------------------------------------
G-|-------------------------------------------
D-|-2-------2---------------------------------
A-|-2-------2-------7-------7-------7-------7-
E-|-0---0-0-0---0-0-6---0-0-6---0-0-5---0-0-5-

 |.|     |.|
--------------------|
--------------------|
--------------------|
--------------------|
-----7--------------|
-0-0-4---0-0-2br2br-|

Verse 2:

e-|---------------|
B-|---------------|
G-|-4---3---2-----|
D-|-4---3---2---6-|
A-|-2---1---0---6-|
E-|-------------4-|

Prechorus (very drunken rhythm):
    P.M           |.|         |.|       |.|
e-|-------------------------------------------------
B-|-------------------------------------------------
G-|-------------------------------------------------
D-|------5/5-7--------5/5-7-------5-5-------5-6-7-8-
A-|------5/5-7--------5/5-7-------5-5-------5-6-7-8-
E-|-0-0--3/3-5----0-0-3/3-5---0-0-3-3---0-0-3-4-5-6-
  
  |.|         |.|         |.|       |.|
------------------------------------------------|
------------------------------------------------|
------------------------------------------------|
------5/5-7-------5-5-2-------5-5-------5-6-7-8-|
------5/5-5-------5-5-2-------5-5-------5-6-7-8-|
--0-0-3/3-5---0-0/3-3-0---0-0/3-3---0-0-3-4-5-6-|

Chorus:
                   P.M                   P.M
e-|------------------------------------------------------
B-|------------------------------------------------------
G-|------------------------------4-----------------------
D-|-2------4------5-6-7-8-2------4------5-6-7-8-2------5-
A-|-2------4------5-6-7-8-2------2------5-6-7-8-2------5-
E-|-0------2------3-4-5-6-0-------------3-4-5-6-0------3-
         
           P.M                  P.M..|  |...........|    
------------------------------------------------------|
------------------------------------------------------|
--------------------9------7----------5-6-7-8---------|
-----4------5-6-7-8-9------7--5-6-7-8-5-6-7-8-5-6-7-8-|
-----4------5-6-7-8-7------5--5-6-7-8-3-4-5-6-5-6-7-8-|
-----2------3-4-5-6-0---------3-4-5-6---------3-4-5-6-|

Riff 2a(rhythm guitar plays B5):
            P.M.|       |.....|
e-|---------------------------------|
B-|---------------------------------|
G-|---------------------------------|
D-|-2h4p2---------------------------|
A-|---------5-4-2-2h4p2---------2-5-|
E-|---------------------5-3-2-5-----|

Riff 3a(rhythm guitar plays C#5):
             P.M.|       |.....|
e-|----------------------------------|
B-|----------------------------------|
G-|----------------------------------|
D-|-----4h6p-------------------------|
A-|-4--------7-6-4-4h6p4---------4-7-|
E-|----------------------7-5-4-7-----|

Add 3:

e-|--------|
B-|--------|
G-|--------|
D-|--4---4-|
A-|--2---2-|
E-|--------|

Riff 2b(rhythm guitar plays B5):
              P.M.|       |.....|
e-|-----------------------------------|
B-|-----------------------------------|
G-|-----2h4p2-------------------------|
D-|-0---2h4p2-4-2-0-0h2p0---------0h4-|
A-|-2---------5-4-2-2h4p2-4-2-0-4-2h5-|
E-|-----------------------5-3-2-5-----|

Riff 3b(rhythm guitar plays C#5):
              P.M.|       |.....|
e-|-----------------------------------|
B-|-----------------------------------|
G-|-----4h6p4-------------------------|
D-|-2---4h6p4-6-4-3-2h4p2---------2h6-|
A-|-4---------7-6-4-4h6p4-6-4-2-6-4h7-|
E-|-----------------------7-5-4-7-----|

Riff 4:
    D5                              D#5
              P.M.|           |...|           |...|
e-|-------------------------------------------------
B-|-------------------------------------------------
G-|-----5h7p5-----------5h7p5-----------6h8p6-------
D-|-7---5h7p5-7-5-3-7---5h7p5-7-5-3-8---6h8p6-8-6-4-
A-|-5---------8-7-5-5---------8-7-5-6---------9-8-6-
E-|-------------------------------------------------
            |....|
------------------|
------------------|
------6h8p6-------|
--8---6h8p6-------|
--6---------9-8-6-|
------------------|

Riff 5:
    E5
                                      P.M.......|
e-|----------------------------------------------
B-|-8---7h8p7---8---7h8p7---8p7---7h8p7----------
G-|-9---7h9p7---9---7h9p7---9p7---7h9p7---9------
D-|-9---7h9p7---9---7h9p7---9p7---7h9p7---10-7-5-
A-|---------------------------------------10-7-5-
E-|------------------------------------------9-7-
 
       |...........|
-------------------------------|
-------------------------------|
--4h5p4-----------------4-7-9--|
--5h7p5-7--5-4---4-7----5-7-9--|
--7h9p7-9--7-5---5-9----7-9-10-|
--------10-8-7---7-10----------|

Riff 6:
    P.M.....|        |.....|       |.....|
e-|-----------------------------------------------
B-|-----------------------------------------------
G-|-----------------------------------------------
D-|-----------------------------------------------
A-|-------------7p5h7---------7p5h7---------7p5h7-
E-|-0---0-0-0---------0-0-0---------0-0-0---------

  |..|    |..|    |...|         |...|         |...|
----------------------------------------------------
----------------------------------------------------
----------------------------------------------------
----------------------------------------------------
--------------------------7p5h7---------7p5h7-------
--0-0-7---0-0-6---0-0-0---------0-0-0---------0-0-0-

       |..|     |.|
--------------------------|
--------------------------|
--------------------------|
--------------------------|
--7p5h7-----6-------5p0---|
--------7-7-----6-6-----3-|

Add 4
e-|-----------------------------|
B-|-----------------------------|
G-|-----------------------------|
D-|-5p4h5------5p4h5------5p4h5-|
A-|-----------------------------|
E-|-----------------------------|

Add 5
e-|-----------------------------|
B-|-----------------------------|
G-|-----------------------------|
D-|-9p7h9------9p7h9------9p7h9-|
A-|-----------------------------|
E-|-----------------------------|

Add 6
e-|--------------------------------------|
B-|--------------------------------------|
G-|--------------------------------------|
D-|-14p12h14------14p12h14------14p12h14-|
A-|--------------------------------------|
E-|--------------------------------------|


Solo: I got this somewhere, it's anything but complete. I can't 
play the *** thing anyway. 

e-|------|-t14p10p7---t14p10p7---t14---(14)p10p7---t14p10p7-
B-|---//-|--------------------------------------------------
G-|-5//--|--------------------------------------------------
D-|-7/---|--------------------------------------------------
A-|------|--------------------------------------------------
E-|------|--------------------------------------------------

-t14/15p10p7---t14/15p10p7---t14/15p10p7h(10)--t17p10p7--
---------------------------------------------------------
---------------------------------------------------------
---------------------------------------------------------
---------------------------------------------------------
---------------------------------------------------------

-t14/15p10p7---t14t14p10p7---t14/15p10p7-t14-t14p10p7--
-------------------------------------------------------
-------------------------------------------------------
-------------------------------------------------------
-------------------------------------------------------
-------------------------------------------------------

-t15p10p7---t14p10p7---t15p10p7---t14p10p7---t15p10p7--
-------------------------------------------------------
-------------------------------------------------------
-------------------------------------------------------
-------------------------------------------------------
-------------------------------------------------------

-t14p10p7---t15p10p7---5-----------------------------------
-----------------------5---h2---(2)/---17b/\/\/\full/\/\/\-
-----------------------------------------------------------
-----------------------------------------------------------
-----------------------------------------------------------
-----------------------------------------------------------

-----------/\/\full/\/\----------------14---17p14-------14--
-17b---17b/---------------(17)------17--------------17------
------------------------------------------------------------
------------------------------------------------------------
------------------------------------------------------------
------------------------------------------------------------

--------------------------------------------------------
-17p14---17p14---17b---14-------------------------------
----------------------------16---14---16p14-----14-16b--
----------------------------------------------16--------
--------------------------------------------------------
--------------------------------------------------------

----------17p14-------------------------------------------
-14-17p14-------17p14-------14h17p14----------------------
----------------------17b------------16---14------14-16b--
---------------------------------------------16-----------
----------------------------------------------------------
----------------------------------------------------------

---------------------------------------------------------
-14-14h17p14---------14-17p14---14-17p14----14h17p14-----
---------------17b------------17---------16----------16--
---------------------------------------------------------
---------------------------------------------------------
---------------------------------------------------------

-----------------------|
-14h17p-14----14h17p14-|
-----------16----------|
-----------------------|
-----------------------|
-----------------------|
sorry! dont have the rest!





Comments


Popular Metallica tabs & chords
Free Speech For The Dumb Bass Tabs
God Of Thunder 3 Bass Tabs
2 X 4 Tabs
Blitzkirieg Tabs
Die Die My Darling 1 Tabs
Fade The Black Riffs Tabs
Leper Messiah 2 Tabs
Nothing Else Matters 4 Tabs
Purify 1 Tabs
The Thing That Should Not Be Tabs


Song lyrics



↑ Back to top | Tablatures and chords are parodies/interpretations of the original songs. You may use it for private study, scholarship, research or language learning purposes only
© 2014 AZChords.com Contact us | Privacy policy | DMCA | Add/correct tabs | Request tabs | Top 50 tabs