>
 >
Frantic Tick Tick Tick Tick Tock

Frantic Tick Tick Tick Tick Tock Guitar Tabs

Metallica - Frantic Tick Tick Tick Tick Tock chords, tabs, tablatures, lyrics

Guitar lessons | Add/correct | Request | Top 50 tabs Artists:  A B C D E F G H I J K L M N O P Q R S T U V W X Y Z 0-9

Frantic Tick Tick Tick Tick Tock Guitar Tabs – Metallica

CD, Sheet music, Poster

Do you like Frantic Tick Tick Tick Tick Tock? Share with your friends now
Tabs
hi people this is my firs tab i hope you like it.

i tune my guitar standard to play this song it sounds best to me, but they say you have to tune it drop c
metallica
frantic


intro A
heavy dist.
--------------------   play this fast
--------------------
--------------------
--------------------   x 4
-------------------0
-0-0-0-0-0-0-0-0-0--

intro B                after play this just alternate between intro A and intro B
heavy dist.
--------------------
--------------------
--------------------  play 'till guitar1 plays alone
--------------------
-0-0-0-0-0-0-0-0-0--    x 4
-------------------0

clean
-18-15-0-17-17--17-18-15-0-17-17--17-18-15-0-17-17--17-18-15-0-0-0-0-0-0  this with dist. x 4

verse A                  verse B
heavy dist.              heavy dist.
----------------        ----------------
----------------        ----------------
----------------  x 8   ----------------  x 4   repeat verse A x 4
----------------        ----------------
-6h3------------        ----------------
-6h3-0-0-0-0-0-0        -3-3-3-3-2-2-2-2

prechorus
clean
-----------------------------------
-----------------------------------
-----------------------------------
-----------------------------------
-----------------------------------
-17-18-15-0-17-17--17-18-15-0-17-17

chorus A
heavy dist.
-----------------------------------
----------------------------------- then play prechorus clean
-----------------------------------
-----------------------------------
-----------------------------------
-17-18-15-0-17-17--17-18-15-0-17-17

chorus B
heavy dist.
------------------
------------------
------------------  x 4
------------------
-----------------0
-0-0-0-0-0-0-0-0-0


chorus C
clean
---------------------------------                                   -------------------------
-----1------1---------------------                                   -----0----0----0------0--
---1------1------2--5------2--5--  x 2 you can play like this too   ---0----0----0---0--0---0
-3------3------3------6--3------6                                   -3-----3----3------3----- x 2
---------------------------------                                   -------------------------
---------------------------------                                   -------------------------

chorus D (frantic tick tick tick.....)
hevy dist. might be wrong, if you don't like it play like this:
----------------------------------                  ------------------------------
----------------------------------                  ------------------------------
---------------------------------- x 2              ------------------------------ x 2
----------------------------------                  ------------------------------
----------------------------------                  ------------------------------
-666666666-333333333-5000000000000                  -6-6-6--3-3-3--5-0-0-0-0-0-0-0
those are "6" "3" "5" and "0"

then play this:
heavy dist.
-18-15-0-17-17--17-18-15-0-17-17--17-18-15-0-17-17--17-18-15-0-0-0-0-0-0


then:
verse A                  verse B
heavy dist.              heavy dist.
----------------        ----------------
----------------        ----------------
----------------  x 8   ----------------  x 4   repeat verse A x 4
----------------        ----------------
-6h3------------        ----------------
-6h3-0-0-0-0-0-0        -3-3-3-3-2-2-2-2

then:
prechorus
clean
-----------------------------------
-----------------------------------
-----------------------------------
-----------------------------------
-----------------------------------
-17-18-15-0-17-17--17-18-15-0-17-17

chorus A
heavy dist.
-----------------------------------
----------------------------------- then play prechorus clean
-----------------------------------
-----------------------------------
-----------------------------------
-17-18-15-0-17-17--17-18-15-0-17-17

chorus B
heavy dist.
------------------
------------------
------------------  x 4
------------------
-----------------0
-0-0-0-0-0-0-0-0-0


chorus C
clean
---------------------------------                                   -------------------------
-----1------1---------------------                                   -----0----0----0------0--
---1------1------2--5------2--5--  x 2 you can play like this too   ---0----0----0---0--0---0
-3------3------3------6--3------6                                   -3-----3----3------3----- x 2
---------------------------------                                   -------------------------
---------------------------------                                   -------------------------


chorus D (frantic tick tick tick.....)
hevy dist. might be wrong, if you don't like it play like this:
----------------------------------                  ------------------------------
----------------------------------                  ------------------------------
---------------------------------- x 2              ------------------------------ x 2
----------------------------------                  ------------------------------
----------------------------------                  ------------------------------
-666666666-333333333-5000000000000                  -6-6-6--3-3-3--5-0-0-0-0-0-0-0
those are "6" "3" "5" and "0"

interlude:
heavy dist.
------------ keep repeating 'till chorus b
------------
------------
-----------0
-----------0
-00000000000

then:

chorus B
heavy dist.
------------------
------------------
------------------  x 4
------------------
-----------------0
-0-0-0-0-0-0-0-0-0


chorus C
clean
---------------------------------                                   -------------------------
-----1------1---------------------                                   -----0----0----0------0--
---1------1------2--5------2--5--  x 2 you can play like this too   ---0----0----0---0--0---0
-3------3------3------6--3------6                                   -3-----3----3------3----- x 2
---------------------------------                                   -------------------------
---------------------------------                                   -------------------------


chorus D (frantic tick tick tick.....)
hevy dist. might be wrong, if you don't like it play like this:
----------------------------------                  ------------------------------
----------------------------------                  ------------------------------
---------------------------------- x 2              ------------------------------ x 2
----------------------------------                  ------------------------------
----------------------------------                  ------------------------------
-666666666-333333333-5000000000000                  -6-6-6--3-3-3--5-0-0-0-0-0-0-0

then outro:
heavy dist.
------------------------
------------------------
------------------------
-0-0---0-0---0-0---0-0--    0-0-0-000-0-0--0-0-0-000
-0-0---0-0---0-0---0-0--    0-0-0-000-0-0--0-0-0-000 keep repeating 'till it's over let it ring.
-0-0---0-0---0-0---0-0--    0-0-0-000-0-0--0-0-0-000


now let's go for the lyrics:
verse:
If i could have my wasted days back
would i use them to get back on track?
stop to warm at karmas burning
or look ahead, but keep on turning?

verse b:
Do i have the strength
to know how i'll go?
can i find it inside
to deal with what i shouldn't know?

verse:
if i could have my wasted days back
would i use them to get back on track?

prechorus...

chorus A:
you live it or lie it!
you live it or lie it!
you live it or lie it!
you live it or lie it!

chorus B:
my lifestyle determines my deathstyle
my lifestyle determines my deathstyle

chorus C:
keep searching, keep on searching,
this search goes on, this search goes on
keep searching, keep on searching,
this search goes on, this search goes on

chorus D:
frantic tick tick tick tick tick tick tock
frantic tick tick tick tick tick tick tock

verse:
i've worn out always being afraid
an endless stream of fear that i've made
treading water full of worry
this frantic tick tick talk of hurrt

verse B:
do i have the strength
to know how i'll go?
can i find it inside
to deal with what i shouldn't know?

verse:
worn out always being afraid
an endless stream of fear that i've made

prechorus....

chorus A:
you live it or lie it!
you live it or lie it!
you live it or lie it!
you live it or lie it!

chorus B:
my lifestyle determines my deathstyle
my lifestyle determines my deathstyle

chorus C:
keep searching, keep on searching,
this search goes on, this search goes on
keep searching, keep on searching,
this search goes on, this search goes on

chorus D:
Frantic tick tick tick tick tick tick tock
Frantic tick tick tick tick tick tick tock

interlude:
do i have the strength
to know how i'll go?
can i find it inside
to deal with i shouldn't know?
.............................
do i have the strength
to know how i'll go?
can i find it inside
to deal with i shouldn't know?

chorus B:
my lifestyle  (birth is pain)
determines my deathstyle  (life is pain)        
a rising tide   (death is pain)                
that pushes to the other side  (it's all the same)

chorus C: 
keep searching, keep on searching,
this search goes on, this search goes on
keep searching, keep on searching,
this search goes on, this search goes on

chorus D:
Frantic tick tick tick tick tick tick tock
Frantic tick tick tick tick tick tick tock

well, this is my first public tab, i have more but you won't find 'em here, maybe i'll tab more 
songs, mail me if you want me to, rate it, it's sounds really good try it.
yeah metallica rules in venezuela!!!!!!!!!!!!!!!!!!!!!!!!!!!!!!!!!!!!!!!!!!!!!!!!!!!!!!!!
if you want any st. anger's lyrics, mail me, i have them all 100% right.





Comments


Popular Metallica tabs & chords
Broken Beat And Scarred Bass Tabs
Die, Die My Darling 2 Bass Tabs
Jump In The Fire 2 Bass Tabs
Nothing Else Matters Live Chords
Anesthesia - Pulling Teeth Tabs
Enter Sandman 8 Tabs
Fade To Black Intro And Tabs
Hero Of The Day Intro Tabs
My Friend Of Misery 1 Tabs
Whiskey In The Jar 1 Tabs


Song lyrics



↑ Back to top | Tablatures and chords are parodies/interpretations of the original songs. You may use it for private study, scholarship, research or language learning purposes only
© 2014 AZChords.com Contact us | Privacy policy | DMCA | Add/correct tabs | Request tabs | Top 50 tabs