>
 >
Franticc

Franticc Guitar Tabs

Metallica - Franticc chords, tabs, tablatures, lyrics

Guitar lessons | Add/correct | Request | Top 50 tabs Artists:  A B C D E F G H I J K L M N O P Q R S T U V W X Y Z 0-9

Franticc Guitar Tabs – Metallica

CD, Sheet music, Poster

Do you like Franticc? Share with your friends now
Tabs
Frantic - Metallica

Tuning: CGCFAD

This Is 100% Correct I Watched The Dvd A Million Times To Get It Right
So No Bitchen To Me If It Don't Sound Right.

Riff 1
[Kirk]
D)---------------
A)---------------
F)---------------
C)---------------
G)--------------3
C)-----00000000-3


Riff 2
[james]
D)---------------------
A)---------------------
F)---------------------
C)---------------------
G)---------------------
C)--6-3-5-00000000-----


Riff 3
[Both]
D)---------------------------------------------------------------------
A)---------------------------------------------------------------------
F)---------------------------------------------------------------------
C)---------------------------------------------------------------------
G)---------------------------------------------------------------------
C)--18-15-0-17-17-17--18-15-0-17-17-17--18-15-0-17-17-17--18-15-0-0-0-0


Riff 4
D)-----------------------
A)-----------------------
F)-----------------------
C)-----------------------
G)-5\3p1-----------------
C)-5\3p1-00000000--------


Riff 5
D)---------------------
A)---------------------
F)---------------------
C)---------------------
G)-3333-2222-3333-2222-
C)-3333-2222-3333-2222-


Riff 6
[Both]
D)-------------------------------------
A)-------------------------------------
F)-------------------------------------
C)-------------------------------------
G)-------------------------------------
C)--18-15-0-17-17-17--18-15-0-17-17-17-


Riff 7
D)---------------
A)---------------
F)---------------
C)---------------
G)---------------
C)--00000000-----

Riff 8
[James]
D)------------------------------------
A)------------------------------------
F)------------------------------------
C)-6-3-5~--6-3-5~--6-5-5-0~--6-5-3-0~-
G)------------------------------------
C)------------------------------------

[Kirk]

D)--------------------------------------------
A)--------------------------------------------
F)--------------------------------------------
C)-15-12-14~--15-12-14~--12-8-9-6~--12-8-9-6~-
G)--------------------------------------------
C)--------------------------------------------


Riff 9
[Both]
D)-----------------------------------------
A)-----------------------------------------
F)-----------------------------------------
C)-----------------------------------------
G)-----------------------------------------
C)--180000150000170000--180000150000170000-


Riff 10
[Both]
D)--------------------------
A)--------------------------
F)--------------------------
C)--------------------------
G)--------------------------
C)--18000015000017-17-17-15-


Riff 11
[James]
D)------
A)------
F)------
C)------
G)------
C)--0-0-

[Kirk]
D)-----------------------
A)-----------------------
F)-----------------------
C)-----------------------
G)-----------------------
C)-13-0-10-0-0-0-12-12---  

Order:

Riff 1 [x8]
Riff 2 [x16]
Riff 3 [x6]
Riff 4 [x8]
Riff 5 [x2]
Riff 4 [x8]
Riff 6 [x3]
Riff 7 [x4]
Riff 8 [x2]
Riff 9 [x1 1/2]
Riff 10 [x1]
Riff 9 [x1 1/2]
Riff 10 [x1]
Riff 2 [x2]
Riff 4 [x8]
Riff 5 [x2]
Riff 4 [x8]
Riff 6 [x3]
Riff 7 [x4]
Riff 8 [x2]
Riff 9 [x1 1/2]
Riff 10 [x1]
Riff 9 [x1 1/2]
Riff 10 [x1]
Riff 9 [x20]
Riff 7 [x8]
Riff 8 [x2]
Riff 9 [x1 1/2]
Riff 10 [x1]
Riff 9 [x1 1/2]
Riff 10 [x1]
Riff 11 [x20]





Comments


Popular Metallica tabs & chords
Eye Of The Beholder 2 Tabs
For Whom The Bell Tolls 5 Tabs
Frantic 5 Tabs
Hell And Back 2 Tabs
Intro Justice 1 Tabs
Jump In The Fire Intro Tabs
Motorbreath 1 Tabs
Ride The Lightning 1 Tabs
Unforgiven Acoustic Intro Tabs
Wherever I May Roam Tabs


Song lyrics



↑ Back to top | Tablatures and chords are parodies/interpretations of the original songs. You may use it for private study, scholarship, research or language learning purposes only
© 2014 AZChords.com Contact us | Privacy policy | DMCA | Add/correct tabs | Request tabs | Top 50 tabs