» » »

Metallica, Frantic Tabs (ver.8)

Artists:  A B C D E F G H I J K L M N O P Q R S T U V W X Y Z # 

Frantic Tabs (ver.8)

Metallica Tabs
Rating:
0/5 (0 votes)
Frantic lessons Tabs too difficult? Try these video lessons and learn fast
                -------------------------------------------------------------------------------
-------------------------------------------------------------------------------


Tuning: Tune guitar down to (from 6th to 1st string): C#,G#,C#,F#,A#,D#.

Intro:
D#|---------------------------------------------------------------------------|
A#|---------------------------------------------------------------------------|
F#|---------------------------------------------------------------------------|
C#|---------------------------------------------------------------------------|
G#|--------0------------------------------------------------------------------|8x
C#|-11111110------------------------------------------------------------------|

D#|---------------------------------------------------------------------------|
A#|---------------------------------------------------------------------------|
F#|---------------------------------------------------------------------------|
C#|--6p0-3p0------5p0---------------------------------------------------------|12x
G#|---------------------------------------------------------------------------|
C#|----------0000-----000000--------------------------------------------------|

D#|---------------------------------------------------------------------------|
A#|---------------------------------------------------------------------------|
F#|---------------------------------------------------------------------------|
C#|---------------------------------------------------------------------------|
G#|--11--8-----10--10---10--11--8-----10--10---10--11--8-----10--10---10------|
C#|---------0----------------------0----------------------0-------------------|

D#|---------------------------------------------------------------------------|
A#|---------------------------------------------------------------------------|
F#|---------------------------------------------------------------------------|
C#|---------------------------------------------------------------------------|
G#|--11--8--------------------------------------------------------------------|
C#|---------0-0-0-0-0-0-------------------------------------------------------|

With drums:
D#|---------------------------------------------------------------------------| 
A#|---------------------------------------------------------------------------|
F#|---------------------------------------------------------------------------|
C#|---------------------------------------------------------------------------| }
G#|--11--8-----10--10---10--11--8-----10--10---10--11--8-----10--10---10------| }
C#|---------0----------------------0----------------------0-------------------| }
										}4x
D#|---------------------------------------------------------------------------| }
A#|---------------------------------------------------------------------------| }
F#|---------------------------------------------------------------------------| }
C#|---------------------------------------------------------------------------|
G#|--11--8--0-0-0-0-0-0-------------------------------------------------------|
C#|---------0-0-0-0-0-0-------------------------------------------------------|


When james starts singing:
D#|---------------------------------------------------------------------------|
A#|---------------------------------------------------------------------------|
F#|---------------------------------------------------------------------------|
C#|---------------------------------------------------------------------------|4x
G#|-6\------------------------------------------------------------------------|
C#|-6\--0-0-0-0-0-0-0-0-0-0-0-0-0-0-------------------------------------------|


"Do I have the strength..."
D#|---------------------------------------------------------------------------|
A#|---------------------------------------------------------------------------|
F#|---------------------------------------------------------------------------|
C#|---------------------------------------------------------------------------|4x
G#|-3-3-3-3-2-2-2-2-----------------------------------------------------------|
C#|-3-3-3-3-2-2-2-2-----------------------------------------------------------|


D#|---------------------------------------------------------------------------|
A#|---------------------------------------------------------------------------|
F#|---------------------------------------------------------------------------|
C#|---------------------------------------------------------------------------|2x
G#|-6\------------------------------------------------------------------------|
C#|-6\--0-0-0-0-0-0-0-0-0-0-0-0-0-0-------------------------------------------|

"You live it or die it..."
D#|---------------------------------------------------------------------------|
A#|---------------------------------------------------------------------------|
F#|---------------------------------------------------------------------------|
C#|---------------------------------------------------------------------------|
G#|-11--8-----10--10---10-----------------------------------------------------|6x
C#|--------0------------------------------------------------------------------|

"My lifestyle..."
D#|---------------------------------------------------------------------------|
A#|---------------------------------------------------------------------------|
F#|---------------------------------------------------------------------------|
C#|---------------------------------------------------------------------------|
G#|---------------------------------------------------------------------------|
C#|-000000000---000000000---000000000---000000000-----------------------------|


"Keep on searching..."
Guitar 1 doubles guitar 2
- Guitar 1
D#|---------------------------------------------------------------------------|
A#|-9--6--8----9--6--8--------------------------------------------------------|
F#|---------------------------------------------------------------------------|
C#|------------------------12--10--9---------12--10--9------------------------|
G#|-----------------------------------10----------------10--------------------|2x
C#|---------------------------------------------------------------------------|

- Guitar 2
D#|---------------------------------------------------------------------------|
A#|-------0--------0---------------0--------0---------------------------------|
F#|----0--------0--------0------0--------0--------0---------------------------|
C#|-6--------3--------5------5--------3--------5------------------------------|4x
G#|---------------------------------------------------------------------------|
C#|---------------------------------------------------------------------------|



"Frantic-tick-tick-..."
D#|---------------------------------------------------------------------------|
A#|---------------------------------------------------------------------------|
F#|---------------------------------------------------------------------------|
C#|---------------------------------------------------------------------------|4x
G#|-11-11-11-11-8-10-10-------------------------------------------------------|
C#|----------------------0-0-0------------------------------------------------|



Then the song repeats some os the riffs tabbed above and goes to this...


Guitar 1:
D#|---------------------------------------------------------------------------|
A#|---------------------------------------------------------------------------|
F#|---------------------------------------------------------------------------|
C#|---------------------------------------------------------------------------|nx
G#|---------------------------------------------------------------------------|
C#|-13p0-10p0-0000-12p0-000000------------------------------------------------|


Guitar 2:
D#|---------------------------------------------------------------------------|
A#|---------------------------------------------------------------------------|
F#|---------------------------------------------------------------------------|
C#|-6p0-3p0-0000-5p0-000000---------------------------------------------------|nx
G#|---------------------------------------------------------------------------|
C#|---------------------------------------------------------------------------|


Then it repeats again some riffs from above and it ends like this:

D#|---------------------------------------------------------------------------|
A#|---------------------------------------------------------------------------|
F#|---------------------------------------------------------------------------|
C#|---------------------------------------------------------------------------|
G#|-0-0----0-0----0-0----0-0--------------------------------------------------|
C#|-0-0----0-0----0-0----0-0--------------------------------------------------|


Play these last riffs until the end of the song...
D#|---------------------------------------------------------------------------|
A#|---------------------------------------------------------------------------|
F#|---------------------------------------------------------------------------|
C#|---------------------------------------------------------------------------|3x
G#|-----12-10-12-10-12-12-----------------------------------------------------|
C#|-0-0-----------------------------------------------------------------------|

D#|---------------------------------------------------------------------------|
A#|---------------------------------------------------------------------------|
F#|---------------------------------------------------------------------------|
C#|--------------------11-----------------------------------------------------|
G#|-----12-10-12-10-12----12--------------------------------------------------|
C#|-0-0-----------------------------------------------------------------------|


| /  slide up
| \  slide down
| h  hammer-on
| p  pull-off
| ~  vibrato
| +  harmonic
| x  Mute note
===============================================================================
            
Submit corrections

comments powered by Disqus
↑ Back to top | Metallica Tabs for Frantic. Lyrics for acoustic guitar and electric guitar. Tablatures and chords are parodies/interpretations of the original songs. You may use it for private study, scholarship, research or language learning purposes only