>
 >
Four Horsemen

Four Horsemen Guitar Tabs

Metallica - Four Horsemen chords, tabs, tablatures, lyrics

Guitar lessons | Add/correct | Request | Top 50 tabs Artists:  A B C D E F G H I J K L M N O P Q R S T U V W X Y Z 0-9

Four Horsemen Guitar Tabs – Metallica

CD, Sheet music, Poster

Do you like Four Horsemen? Share with your friends now
Tabs
  
 

  
 Learn To Play The 1st Solo Of "The Four Horsemen" 

Part 1: 
|-------------------------------------------|--15b17----r15-12-15-14-~~-| 
|--15b17--15b17----15b17r15p12--15b17--r15--|------
|-------------------------------------------|------
|-------------------------------------------|-----
|-------------------------------------------|-----
|-------------------------------------------|------
  
|--7------9--7--------10-9-7--------|--------------
|----10-7------10-8-7--------7h10p7-|-7-10p7-------
|-----------------------------------|--------9-7-6h7-6----------| 
|-----------------------------------|------------------7--------| 
|-----------------------------------|--------------------7-~~~--| 
|-----------------------------------|---------------------------| 
  
Part 2: 
|-------------------------------------------| 
|---12--12---12--12-12---12--12-12--12--12--| 
|-9-11--11---11\/11-11---11\/11-11--11--11--| 
|-------------------------------------------| 
|-------------------------------------------| 
|-------------------------------------------| 
  
|--------------------------------------------------
|--------------------------------------------------
|--14b16r14--14p11---------------------------------
|------------------14-12----12-14b16r14-12----12--12-12-| 
|------------------------14----------------14------
|--------------------------------------------------
                             
                        A 
|--------------------------------------------------
|------------------------------------------12h13p12----12-13--| 
|--11h12--11----11-12-11h12p11----11-12-14----------14--------|
|------------14----------------14------------------
|--------------------------------------------------
|--------------------------------------------------
  
|-------------------------------20------| 
|--13/15-15/17-17/19-19/20-20-~----20\--| 
|---------------------------------------| 
|---------------------------------------| 
|---------------------------------------| 
|---------------------------------------| 
  
|-17b19--17b19r17-15-17p15-14-15p14\12--14p12------
|--------------------------------------------15-15-14-12-14\| 
|--------------------------------------------------
|--------------------------------------------------
|--------------------------------------------------
|--------------------------------------------------
                      3  1  1  2  1  1   3  1 3  3  2  1  3 
|--------------------------------------------------
|-12-10-12--10-8-10-8---8--------------------------
|---------------------9---9-7--9-7-----------------
|----------------------------------9-7-------------
|--------------------------------------10-7--------
|-------------------------------------------10--7--7--| 
   1  1  3   1 1  3 1 2 1 2 1  3 1 3 1  4 1  4  1  1 
Part 3: 
|---------------------------------------------12----12--| 
|-------------------8---8-10-8-10-12-10-12-15----15
|-------7---7-9-7-9---9---------------------------
|-9-7-9---9---------------------------------------|
|--------------------------------------------------
|--------------------------------------------------
  
  3 1 3 1 3 1 3 1 3 1 2 1  3 1 etc. 

|15p12-12-12-15p12-12-12-12-15p12-12-12-12-12-12-12-12-15p12- 
|--------------------------------------------------
|--------------------------------------------------
|-------------------------------------------------
|--------------------------------------------------
|-------------------------------------------------
  
-12-12-12-12-12--15b17--15b17--| 
-------------------------------| 
-------------------------------| 
-------------------------------| 
-------------------------------| 
-------------------------------| 
  
|15b17--15-12-15p12-15p12-15p12-12h15p12----12-15p12-12h15p12----12- 
|----------------------------------------15-------------------15---- 
|--------------------------------------------------
|--------------------------------------------------
|--------------------------------------------------
|--------------------------------------------------
  
-15p12-12h15p12----12-15p12-12-| 
----------------15-------------| 
-------------------------------| 
-------------------------------| 
-------------------------------| 
-------------------------------| 
  
|15p12----12-15p12-12h15p12----12-15p1--15p12----12--15b17---15b17---15b17--15\| 
|------15-------------------15----------------15---
|--------------------------------------------------
|--------------------------------------------------
|--------------------------------------------------
|--------------------------------------------------

Part 4: 
|-----------------------------------------------|--
|-----------------------------------------------|--
|-12h14-12p11h12p11----11-----------------------|-
|-------------------14----14-12p11h12p11\9-11p9\|--7-~-~-~
|-----------------------------------------------|--
|-----------------------------------------------|--
  
|--------------------------|----------------| 
|--------------------------|-------\--------| 
|--------------------------|--12p0--\-------| 
|--4--5--4--5--4--5--4--5--|---------\------| 
|--2--3--2--3--2--3--2--3--|----------\-----| 
|--------------------------|---------0-\/---| 
                                 with trem bar





Comments


Popular Metallica tabs & chords
Escape Bass Tabs
All Nightmare Long Drum Tabs
Blues Jam 1 Tabs
Escape Tabs
Hit The Lights Tabs
I Disappear 1 Tabs
Live Shit Riffs 1 Tabs
One 2 Tabs
The More I See Tabs
Unforgiven James Part Tabs


Song lyrics



↑ Back to top | Tablatures and chords are parodies/interpretations of the original songs. You may use it for private study, scholarship, research or language learning purposes only
© 2014 AZChords.com Contact us | Privacy policy | DMCA | Add/correct tabs | Request tabs | Top 50 tabs