» » »

For Whom The Bell Tones Bass tabs (ver.1)

Artists:  A B C D E F G H I J K L M N O P Q R S T U V W X Y Z # 

For Whom The Bell Tones Bass tabs (ver.1)

Metallica
Rating:
0/5 (0 votes)

Hard to play? Try these video lessons and learn fast.
                Artist=metallica
Song=for whom the bell tolls 
By Paul Thompson 

G-19-18-17-16-------19----- repeat this
d-------------17-16-------- verse 5 or
a---------------------17-16 more times
E-------------------------- 
       Second verse
G----------------------- Do this rift 
d----------------------- three times
a----------------------2 
E-3-2-1-0-3-2-1-0-3-2-1- 
When James sings,        do this when 
G------------------------ When James
D------------------------ Sings
a------------------------ 
E------0----0-0-1-0-2-2-0 
        Chorus 
G--------------------------- 
D--------------------------- 
A------------------------1-- 
E-0-0-0-3-0-0-0-5-0-0-0-3--2 

G------------------------------ 
D------------------------------  
A------------------------1----- 
E-0-0-0-3-0-0-0-5-0-0-0-3—2-1-0
          Last verse 
G----------------------- 
D----------------------- 
A----------------------- 
E-2-2-2-5-5-5-3-3-3-0---
 
  THIS IS MY FIRST TIME SO ENJOY...
            
Hard to play? Try these video lessons and learn fast. | Correct




comments powered by Disqus
↑ Back to top | Tablatures and chords are parodies/interpretations of the original songs. You may use it for private study, scholarship, research or language learning purposes only