» » »

Metallica, For Whom The Bells Tolls Bass tabs (ver.5)

Artists:  A B C D E F G H I J K L M N O P Q R S T U V W X Y Z # 

For Whom The Bells Tolls Bass tabs (ver.5)

Metallica Tabs
Rating:
0/5 (0 votes)
For Whom The Bells Tolls lessons Tabs too difficult? Try these video lessons and learn fast
                (Live)
(Intro)
----------------------------------------------------------------------------
                   /\/\ETALLIC/-\
----------------------------------------------------------------------------
This is the intro that was played by Cliff Burton, live 1985 31 august.

G|--3-6-5--5-8-7--9-12--11---14--15--14----15--18--17---17--22--21-|
D|-----------------------------------------------------------------|
A|-----------------------------------------------------------------|
E|-----------------------------------------------------------------|

G|--17--15--16---14--15--14--9--12--11--9--7~-|
D|--------------------------------------------|
A|--------------------------------------------|
E|--------------------------------------------|

Distortion.

G|------------------------------------------------------------------------------------------|
D|----3\9---10---10---10---10-12-10-12-10-12-10-12\(4)/15-17-15-17-15-17-15-17-15-17-15-17~-|
A|--------------12---12---12----------------------------------------------------------------|
E|------------------------------------------------------------------------------------------|

G|--------17---15--------------------------------|
D|-----15---17---15------------------------------|
A|-------------------15-17-15-17-15-17-15-17~----|
E|---------------------------------------------0~|

G|-----------------19-18-17-16~--h19h16----------19-----------------|
D|----------------------------------------17-16---------------------|
A|---------------------------------------------------17-16~--/------|
E|-2-2--2-2--0~--------------------------------------------------0--|


G|--19-18-17-16~-16--19---19---19---19---19---19---------|
D|---------------------19---19---19---19---19---19-------|
A|-------------------------------------------------------|
E|--------------------------------------------------0----|


G|--19-18-17-16~--h19h16---------19-----------------19-18-17-16~--h19h16--------19----------|
D|------------------------17-16-------------------------------------------17-16-------------|
A|-----------------------------------17-16~----------------------------------------19-19~---|
E|-----------------------------------------17/9---------------------------------------------|

G|-19-18-17-16~--h19h16-------19--------------19-18-17-16~-16-| |-19-|
D|----------------------17-16---------------------------------| |--19| x18
A|--------------------------------17-16~--/-------------------| |----|
E|-------------------------------------------0----------------| |----|
            

comments powered by Disqus
↑ Back to top | Metallica Bass for For Whom The Bells Tolls. Lyrics for acoustic guitar and electric guitar. Tablatures and chords are parodies/interpretations of the original songs. You may use it for private study, scholarship, research or language learning purposes only