» » »

Metallica, For Whom The Bells Tolls Bass tabs (ver.4)

Artists:  A B C D E F G H I J K L M N O P Q R S T U V W X Y Z # 

For Whom The Bells Tolls Bass tabs (ver.4)

Metallica Tabs
Rating:
0/5 (0 votes)
For Whom The Bells Tolls lessons Tabs too difficult? Try these video lessons and learn fast
                (Live)
Solo
Play with distortion and wah wah

G|------7---9-7-9-10-9-10-12-10-12-14-12-14-15-14-15-17-15-17-19-17-19-22-21-19---|
D|------0---0-0-0-0--0-0--0--0--0--0--0--0--0--0--0--0--0--0--0--0--0--0--0--0----|
A|-9--7---------------------------------------------------------------------------|
E--0--0---------------------------------------------------------------------------|

G|-17-19-15-17-14-15-12-14-10-9-7---12-10----10-12-10----10-12-10----10-12-10-----|
D|-0--0--0--0--0--0--0--0--0--0-0---------12----------12----------12----------12--|
A|--------------------------------------------------------------------------------|
E|--------------------------------------------------------------------------------|

G|-10-12-10----10-12-10-----14-12----12-14-12----12-14-12----12-14-12----16-14-----|
D|----------12----------12--------14----------14----------14---------~14-------16--|
A|---------------------------------------------------------------------------------|
E|---------------------------------------------------------------------------------|

G|-14-16-14----14-16-14----14-16-14----------19-18-17-16-------19------------------|
D|----------16----------16----------~16------------------17-16---------------------|
A|----------------------------------------------------------------17-~16-----------|
E|--------------------------------------0---------------------------------17/12----|

G|-19-18-17-16--19-16----16-19-16----16-19-16----16-19-16----16-19-16----16-19-16---|
D|--------------------19----------19----------19----------19----------19---------19-|
A|----------------------------------------------------------------------------------|
E|----------------------------------------------------------------------------------|

G|-16-19-16------19-18-17-16-------19----------------19-18-17-16--------------------|
D|----------19---------------17-16--------------------------------17-16-~19-~19-h17-|
A|------------------------------------17-~16----------------------------------------|
E|-------------------------------------------17/12----------------------------------|

G|-19-18-17-16-------19----------------19-18-17-16--19-16----16-19-16----16-19-16---|
D|-------------17-16--------------------------------------19----------19---------19-|
A|----------------------17-~16------------------------------------------------------|
E|-----------------------------17/12------------------------------------------------|

G|-16-19-16----16-19-16----16-19-16----16-19-16----16-19-16---16-19-16--------------|
D|---------19----------19----------19----------19----------19----------19-----------|
A|----------------------------------------------------------------------------------|
E|----------------------------------------------------------------------------------|

G|-16-19-16----16-19-16----16-19-16----|
D|---------19----------19----------19--|
A|-------------------------------------|
E|-------------------------------------|
            

comments powered by Disqus
↑ Back to top | Metallica Bass for For Whom The Bells Tolls. Lyrics for acoustic guitar and electric guitar. Tablatures and chords are parodies/interpretations of the original songs. You may use it for private study, scholarship, research or language learning purposes only