» » »

For Whom The Bells Tolls Tabs (ver.6)

Artists:  A B C D E F G H I J K L M N O P Q R S T U V W X Y Z # 

For Whom The Bells Tolls Tabs (ver.6)

Metallica
Rating:
0/5 (0 votes)

Hard to play? Try these video lessons and learn fast.
                (Complete)
For Whom The Bell Tolls 
By Metallica
 (a totally kick ass song)


Intro (0:00 – 0:40)
e--------------------------------------------------------------------
b--------------------------------------------------------------------
g--------------------------------------------------------------------4x
d--------------------------------------------------------------------
a---4-4--4-4--2------4-4--4-4--2------4-4--4-4--2------4-4--4-4--2---
E---2-2--2-2--0------2-2--2-2--0------2-2--2-2--0------2-2--2-2--0---

Riff 1  (0:40-0:57)
e--------------------------------------------------------------------
b--------------------------------------------------------------------
g--------------------------------------------------------------------1x
d--------------------------------------------------------------------
a---4-4-2------4-4-2------4-4-2------4-4-2------4-4-2----------------
E---2-2-0------2-2-0------2-2-0------2-2-0------2-2-0----------------

Riff 2 (0:57-1:13)
e----------------------------------------------------------------------
b----------------------------------------------------------------------
g----------------------------------------------------------------------
d--------------------------------2--------------------------------2----
a--2-5-4-3-2-5-4-3-2-5-4-3-2-4-5-0--2-5-4-3-2-5-4-3-2-5-4-3-2-4-5-0----
E--0-3-2-1-0-3-2-1-0-3-2-1-0-2-3----0-3-2-1-0-3-2-1-0-3-2-1-0-2-3------


Riff 3(Play During First solo) 
   Guitar 1 (Hetfield) (0:40-1:50)
e|--------------------------------------------------------------------
b|--------------------------------------------------------------------
g|--------------------------------------------------------------------2x
d|--------------------------------------------------------------------
a|--2---------5---x---2-------5----10---5-----------------------------
E|--0---------3---x---0-------3----8----7-----------------------------
 |
 | First Solo Guitar 2(Hammett) (1:17-1:47)
e|-----------------------------------------------------------I’m not 
b|-----------------------------------------------------------sure how 
g|---12-9-11----9-11-12-9-11----9-11-------------------------times to 
d|-----------12--------------12------------------------------repeat this
a|----------------------------------------------------------------------
E|----------------------------------------------------------------------

Riff 3 (1:50-2:06)
e---------------------------------------------------------------------------
b---------------------------------------------------------------------------
g---------------------------------------------------------------------------2x
d-----------------------------3-------------------------------------3-------
a-------5---------7---------5-1-4---------5---------7---------5-----1-4-3---
E-0-0-0-3---0-0-0-5---0-0-0-3---2---0-0-0-3---0-0-0-5---0-0-0-3-0-0---2-1---

Riff 4 (2:06-2:39)
e--------------------------------------------------------------------
b--------------------------------------------------------------------
g--------------------------------------------------------------------2x
d--------------------------------------------------------------------
a--2---------5---x---2-------5----10---5-----------------------------
E--0---------3---x---0-------3----8----7-----------------------------
    (Make His Fight…)
    (Shouting gun…)
    (For a Hill…)
    (Men of five…)

Riff 5 (2:39-2:55)
e---------------------------------------------------------------------------
b---------------------------------------------------------------------------
g---------------------------------------------------------------------------2x
d-----------------------------3-------------------------------------3-------
a-------5---------7---------5-1-4---------5---------7---------5-----1-4-3---
E-0-0-0-3---0-0-0-5---0-0-0-3---2---0-0-0-3---0-0-0-5---0-0-0-3-0-0---2-1---
      (For whom the bell tolls…)                               (Time Marches on)

Second Solo
  Guitar 2(Hammett) (2:55-3:10)
e----------------------------------------------------------------------
b----------------------------------------------------------------------
g--12-9-11----9--------------------------------Pause-------------------3x
d----------12---11-12-9-11----9----------------------------------------
a--------------------------12---10-------------------------------------
E----------------------------------------------------------------------

   Guitar 2(Hammett) (3:10-3:19)
e|-7------------7------------------------------------------------------
b|---8---10-7-8--------------------------------------------------------
g|-----9---------------------------------------------------------------
d|---------------------------------------------------------------------
a|---------------------------------------------------------------------
E|---------------------------------------------------------------------
 | Guitar 1(Hetfield)                                                    3x
e|---------------------------------------------------------------------
b|---------------------------------------------------------------------
g|---------------------------------------------------------------------
d|--9----11----11----12-9-11----9--------------------------------------
a|----12----12----10---------12---10-----------------------------------
E|---------------------------------------------------------------------

Riff 6 (3:19-3:52)
e--------------------------------------------------------------------
b--------------------------------------------------------------------
g--------------------------------------------------------------------3x
d--------------------------------------------------------------------
a--2---------5---x---2-------5----10---5-----------------------------
E--0---------3---x---0-------3----8----7-----------------------------
    (Take a look…)
    (Blackened roar…)
    (Stranger now…)
    (Crack of Dawn…)

Riff 7 (3:52-4:09)
e---------------------------------------------------------------------------
b---------------------------------------------------------------------------
g---------------------------------------------------------------------------2x
d-----------------------------3-------------------------------------3-------
a-------5---------7---------5-1-4---------5---------7---------5-----1-4-3---
E-0-0-0-3---0-0-0-5---0-0-0-3---2---0-0-0-3---0-0-0-5---0-0-0-3-0-0---2-1---
      (For whom the bell tolls…)                               (Time Marches on)

Ending Riff (4:09-5:04)
e---------------------------------------------------------------------------
b---------------------------------------------------------------------------
g---------------------------------------------------------------------------Repeat until Done
d---------------------------------------------------------------------------
a---4-4-2-----4-4—-5-5-2-----------------------------------------------------
E---2-2-0-----2-2--3-3-0----------------------------------------------------


By Brett
            
Hard to play? Try these video lessons and learn fast. | Correct




comments powered by Disqus
↑ Back to top | Tablatures and chords are parodies/interpretations of the original songs. You may use it for private study, scholarship, research or language learning purposes only