» » »

Metallica, For Whom The Bells Tolls Tabs (ver.5)

Artists:  A B C D E F G H I J K L M N O P Q R S T U V W X Y Z # 

For Whom The Bells Tolls Tabs (ver.5)

Metallica Tabs
Rating:
0/5 (0 votes)
For Whom The Bells Tolls lessons Tabs too difficult? Try these video lessons and learn fast
                pumkinhead21
Matallica
for whom the bells tolls
Ride the lightning
Yeah i think this is 100% correct so yeah.
RATE THIS TAB

Intro(0:07)

Gtr 2
E|-----10--9--8--7-------10-----------|
B|------------------8--7--------------|
G|-------------------------7--6-------| x8
D|------------------------------------|
A|------------------------------------|
E|------------------------------------|

Gtr1
E|------------------------------------|
B|------------------------------------|
G|------------------------------------|
D|------------------------------------| x8
A|----4-4---4-4--2--------------------|
E|----2-2---2-2--0--------------------|

(0:57)

Gtr 2
E|-----------------------------------------------------|
B|-----------------------------------------------------|
G|--4--7--6--3---4--7--6--3---4--7--6--3---4--6--7-----|
D|--2--5--4--5---2--5--4--5---2--5--4--5---2--4--5--2--|
A|--------------------------------------------------0--|
E|-----------------------------------------------------|

Gtr 2 continued
E|-----------------------------------------------------|
B|-----------------------------------------------------|
G|--4--7--6--3---4--7--6--3---4--7--6--3---4--6--7-----|
D|--2--5--4--5---2--5--4--5---2--5--4--5---2--4--5--4--|
A|--------------------------------------------------2--|
E|-----------------------------------------------------|

Gtr1
E|-----------------------------------------------------|
B|-----------------------------------------------------|
G|-----------------------------------------------------|
D|-------------------------------------------------2---|
A|-2--5--4--3---2--5--4--3---2--5--4--3---2--4--5--0---|
E|-0--3--2--1---0--3--2--1---0--3--2--1---0--2--3------|

Gtr1 continued
E|-----------------------------------------------------|
B|-----------------------------------------------------|
G|-----------------------------------------------------|
D|-------------------------------------------------4---|
A|-2--5--4--3---2--5--4--3---2--5--4--3---2--4--5--2---|
E|-0--3--2--1---0--3--2--1---0--3--2--1---0--2--3------|

(1.17)

Gtr2
E|-----------------------------------------------------|
B|-----------------------------------------------------|
G|-12--9--11------9--11--12--9--11------9--11----------|
D|------------12--------------------12-----------------|
A|-----------------------------------------------------|
E|-----------------------------------------------------|

Gtr1
E|-----------------------------------------------------|
B|-----------------------------------------------------|
G|-----------------------------------------------------|
D|-----------------------------------------------------|
A|-2--------------2--------------5--------------5------|
E|-0--------------0--------------3--------------3------|

Gtr1 continued
E|-----------------------------------------------------|
B|-----------------------------------------------------|
G|-----------------------------------------------------|
D|-----------------------------------------5-----2-----|
A|-2--------------2--------------5---------3-----0-----|
E|-0--------------0--------------3---------------------|

(1.50)

Gtr1 
E|----------------------------------------------------------------------------------|
B|----------------------------------------------------------------------------------|
G|----------------------------------------------------------------------------------|
D|--------------------------------3-------------------------------------3-----------|
A|-------5---------7---------5----1---4---------5---------7---------5---1---4---3---|
E|-0-0-0-3---0-0-0-5---0-0-0-3--------2---0-0-0-3---0-0-0-5---0-0-0-3-------2---1---|

Verse(2.06)

Gtr1
E|----------------------------------------|
B|----------------------------------------|
G|----------------------------------------|
D|----------------------------------------|
A|-2--------------2--------------5--------|
E|-0--------------0--------------3--------|

Gtr1 continued
E|----------------------------------------|
B|----------------------------------------|
G|----------------------------------------|
D|----------------------------------------|
A|-5--------------2--------------2--------|
E|-3--------------0--------------0--------|

Gtr1 continued
E|------------------------------------------------------------|
B|------------------------------------------------------------|
G|------------------------------------------------------------|
D|----------------5--------------2-----------5----------2-----|
A|-5--------------3--------------0-----------3----------0-----|
E|-3----------------------------------------------------------|

Chorus(2.39)

Gtr1 
E|----------------------------------------------------------------------------------|
B|----------------------------------------------------------------------------------|
G|----------------------------------------------------------------------------------|
D|--------------------------------3-------------------------------------3-----------|
A|-------5---------7---------5----1---4---------5---------7---------5---1---4---3---|
E|-0-0-0-3---0-0-0-5---0-0-0-3--------2---0-0-0-3---0-0-0-5---0-0-0-3-------2---1---|

Gtr1 continued
E|----------------------------------------------------------------------------------|
B|----------------------------------------------------------------------------------|
G|----------------------------------------------------------------------------------|
D|--------------------------------3-------------------------------------3-----------|
A|-------5---------7---------5----1---4---------5---------7---------5---1---4---3---|
E|-0-0-0-3---0-0-0-5---0-0-0-3--------2---0-0-0-3---0-0-0-5---0-0-0-3-------2---1---|

Interlude(2.55)

Gtr2
E|--------------------------------------------------|
B|--------------------------------------------------|
G|-12--9--11------9---------------------------------|
D|------------12-----11--12--9--11------9-----------|  
A|----------------------------------12-----10-------|
E|--------------------------------------------------|

Gtr2 continued
E|--------------------------------------------------|
B|--------------------------------------------------|
G|-12--9--11------9---------------------------------|
D|------------12-----11--12--9--11------9-----------|  
A|----------------------------------12-----10-------|
E|--------------------------------------------------|

Gtr1 
E|------------------------------------------------------------------------|
B|------------------------------------------------------------------------|
G|------------------------------------------------------------------------|
D|--------------------------------------------------------------4---------|
A|--2----------2----------2---------5---5-5-5-5-----5-5-5---2---2---------|
E|--0----------0----------0---------3---3-3-3-3-----3-3-3---0-------------|

Gtr2
E|--------------------------------------------------|
B|--------------------------------------------------|
G|-12--9--11------9---------------------------------|
D|------------12-----11--12--9--11------9-----------|  
A|----------------------------------12-----10-------|
E|--------------------------------------------------|

Gtr1 continued
E|----7------------------7-----------7---------7------------------7--------|
B|-------8-----10--7--8-----------------------------8---10--7--8-----------|
G|----------9-----------------------------------------9--------------------|
D|-------------------------------------------------------------------------|
A|-------------------------------------------------------------------------|
E|-------------------------------------------------------------------------|

Gtr1 continued
E|---------------------------------------------|
B|---------------------------------------------|
G|--9----11----11----12--9-11----9-------------|
D|----12----12----10----------12---10----------| x2
A|---------------------------------------------|
E|---------------------------------------------|

Outro(4.08)
E|----------------------------------------------------------|
B|----------------------------------------------------------|
G|----------------------------------------------------------|
D|--9-----------11---11------9------11-----11------12---12--|
A|--7------------9----9------7-------9------9------10---10--|
E|--0------------------------0------------------------------|
            
Submit corrections

comments powered by Disqus
↑ Back to top | Metallica Tabs for For Whom The Bells Tolls. Lyrics for acoustic guitar and electric guitar. Tablatures and chords are parodies/interpretations of the original songs. You may use it for private study, scholarship, research or language learning purposes only